  0
SECTION
  2
HEADER
  9
$ACADVER
  1
AC1024
  9
$ACADMAINTVER
 70
     6
  9
$DWGCODEPAGE
  3
ANSI_1252
  9
$INSBASE
 10
0.0
 20
0.0
 30
0.0
  9
$EXTMIN
 10
0.0
 20
0.0
 30
0.0
  9
$EXTMAX
 10
100.0
 20
150.0
 30
0.0
  9
$LIMMIN
 10
0.0
 20
0.0
  9
$LIMMAX
 10
100.0
 20
150.0
  9
$ORTHOMODE
 70
     0
  9
$REGENMODE
 70
     1
  9
$FILLMODE
 70
     1
  9
$QTEXTMODE
 70
     0
  9
$MIRRTEXT
 70
     1
  9
$LTSCALE
 40
1.0
  9
$ATTMODE
 70
     1
  9
$TEXTSIZE
 40
0.1377952756
  9
$TRACEWID
 40
0.05
  9
$TEXTSTYLE
  7
STANDARD
  9
$CLAYER
  8
0
  9
$CELTYPE
  6
ByLayer
  9
$CECOLOR
 62
   256
  9
$CELTSCALE
 40
1.0
  9
$DISPSILH
 70
     0
  9
$DIMSCALE
 40
1.0
  9
$DIMASZ
 40
0.2362204724
  9
$DIMEXO
 40
0.0393700787
  9
$DIMDLI
 40
0.38
  9
$DIMRND
 40
0.0
  9
$DIMDLE
 40
0.0
  9
$DIMEXE
 40
0.0393700787
  9
$DIMTP
 40
0.0
  9
$DIMTM
 40
0.0
  9
$DIMTXT
 40
0.1377952756
  9
$DIMCEN
 40
0.09
  9
$DIMTSZ
 40
0.0
  9
$DIMTOL
 70
     0
  9
$DIMLIM
 70
     0
  9
$DIMTIH
 70
     1
  9
$DIMTOH
 70
     1
  9
$DIMSE1
 70
     0
  9
$DIMSE2
 70
     0
  9
$DIMTAD
 70
     1
  9
$DIMZIN
 70
     0
  9
$DIMBLK
  1

  9
$DIMASO
 70
     1
  9
$DIMSHO
 70
     1
  9
$DIMPOST
  1

  9
$DIMAPOST
  1

  9
$DIMALT
 70
     0
  9
$DIMALTD
 70
     2
  9
$DIMALTF
 40
25.4
  9
$DIMLFAC
 40
1.0
  9
$DIMTOFL
 70
     0
  9
$DIMTVP
 40
0.0
  9
$DIMTIX
 70
     0
  9
$DIMSOXD
 70
     0
  9
$DIMSAH
 70
     0
  9
$DIMBLK1
  1

  9
$DIMBLK2
  1

  9
$DIMSTYLE
  2
Standard
  9
$DIMCLRD
 70
     0
  9
$DIMCLRE
 70
     0
  9
$DIMCLRT
 70
     0
  9
$DIMTFAC
 40
1.0
  9
$DIMGAP
 40
0.06
  9
$DIMJUST
 70
     0
  9
$DIMSD1
 70
     0
  9
$DIMSD2
 70
     0
  9
$DIMTOLJ
 70
     1
  9
$DIMTZIN
 70
     0
  9
$DIMALTZ
 70
     0
  9
$DIMALTTZ
 70
     0
  9
$DIMUPT
 70
     0
  9
$DIMDEC
 70
     3
  9
$DIMTDEC
 70
     3
  9
$DIMALTU
 70
     2
  9
$DIMALTTD
 70
     2
  9
$DIMTXSTY
  7
STANDARD
  9
$DIMAUNIT
 70
     0
  9
$DIMADEC
 70
     2
  9
$DIMALTRND
 40
0.0
  9
$DIMAZIN
 70
     0
  9
$DIMDSEP
 70
    46
  9
$DIMATFIT
 70
     3
  9
$DIMFRAC
 70
     0
  9
$DIMLDRBLK
  1

  9
$DIMLUNIT
 70
     2
  9
$DIMLWD
 70
    -2
  9
$DIMLWE
 70
    -2
  9
$DIMTMOVE
 70
     0
  9
$DIMFXL
 40
1.0
  9
$DIMFXLON
 70
     0
  9
$DIMJOGANG
 40
0.7853981634
  9
$DIMTFILL
 70
     0
  9
$DIMTFILLCLR
 70
     0
  9
$DIMARCSYM
 70
     0
  9
$DIMLTYPE
  6

  9
$DIMLTEX1
  6

  9
$DIMLTEX2
  6

  9
$DIMTXTDIRECTION
 70
     0
  9
$LUNITS
 70
     2
  9
$LUPREC
 70
     2
  9
$SKETCHINC
 40
0.1
  9
$FILLETRAD
 40
0.5
  9
$AUNITS
 70
     0
  9
$AUPREC
 70
     2
  9
$MENU
  1
.
  9
$ELEVATION
 40
0.0
  9
$PELEVATION
 40
0.0
  9
$THICKNESS
 40
0.0
  9
$LIMCHECK
 70
     0
  9
$CHAMFERA
 40
0.0
  9
$CHAMFERB
 40
0.0
  9
$CHAMFERC
 40
0.0
  9
$CHAMFERD
 40
0.0
  9
$SKPOLY
 70
     0
  9
$TDCREATE
 40
2457238.490894734
  9
$TDUCREATE
 40
2457238.699228067
  9
$TDUPDATE
 40
2457238.49089493
  9
$TDUUPDATE
 40
2457238.699228264
  9
$TDINDWG
 40
0.0000000116
  9
$TDUSRTIMER
 40
0.0000000116
  9
$USRTIMER
 70
     1
  9
$ANGBASE
 50
0.0
  9
$ANGDIR
 70
     0
  9
$PDMODE
 70
     0
  9
$PDSIZE
 40
-1.0
  9
$PLINEWID
 40
0.0
  9
$SPLFRAME
 70
     0
  9
$SPLINETYPE
 70
     6
  9
$SPLINESEGS
 70
     8
  9
$HANDSEED
  5
1A3
  9
$SURFTAB1
 70
     6
  9
$SURFTAB2
 70
     6
  9
$SURFTYPE
 70
     6
  9
$SURFU
 70
     6
  9
$SURFV
 70
     6
  9
$UCSBASE
  2

  9
$UCSNAME
  2

  9
$UCSORG
 10
0.0
 20
0.0
 30
0.0
  9
$UCSXDIR
 10
1.0
 20
0.0
 30
0.0
  9
$UCSYDIR
 10
0.0
 20
1.0
 30
0.0
  9
$UCSORTHOREF
  2

  9
$UCSORTHOVIEW
 70
     0
  9
$UCSORGTOP
 10
0.0
 20
0.0
 30
0.0
  9
$UCSORGBOTTOM
 10
0.0
 20
0.0
 30
0.0
  9
$UCSORGLEFT
 10
0.0
 20
0.0
 30
0.0
  9
$UCSORGRIGHT
 10
0.0
 20
0.0
 30
0.0
  9
$UCSORGFRONT
 10
0.0
 20
0.0
 30
0.0
  9
$UCSORGBACK
 10
0.0
 20
0.0
 30
0.0
  9
$PUCSBASE
  2

  9
$PUCSNAME
  2

  9
$PUCSORG
 10
0.0
 20
0.0
 30
0.0
  9
$PUCSXDIR
 10
1.0
 20
0.0
 30
0.0
  9
$PUCSYDIR
 10
0.0
 20
1.0
 30
0.0
  9
$PUCSORTHOREF
  2

  9
$PUCSORTHOVIEW
 70
     0
  9
$PUCSORGTOP
 10
0.0
 20
0.0
 30
0.0
  9
$PUCSORGBOTTOM
 10
0.0
 20
0.0
 30
0.0
  9
$PUCSORGLEFT
 10
0.0
 20
0.0
 30
0.0
  9
$PUCSORGRIGHT
 10
0.0
 20
0.0
 30
0.0
  9
$PUCSORGFRONT
 10
0.0
 20
0.0
 30
0.0
  9
$PUCSORGBACK
 10
0.0
 20
0.0
 30
0.0
  9
$USERI1
 70
     0
  9
$USERI2
 70
     0
  9
$USERI3
 70
     0
  9
$USERI4
 70
     0
  9
$USERI5
 70
     0
  9
$USERR1
 40
0.0
  9
$USERR2
 40
0.0
  9
$USERR3
 40
0.0
  9
$USERR4
 40
0.0
  9
$USERR5
 40
0.0
  9
$WORLDVIEW
 70
     1
  9
$SHADEDGE
 70
     3
  9
$SHADEDIF
 70
    70
  9
$TILEMODE
 70
     1
  9
$MAXACTVP
 70
    64
  9
$PINSBASE
 10
0.0
 20
0.0
 30
0.0
  9
$PLIMCHECK
 70
     0
  9
$PEXTMIN
 10
1.0000000000E+20
 20
1.0000000000E+20
 30
1.0000000000E+20
  9
$PEXTMAX
 10
-1.0000000000E+20
 20
-1.0000000000E+20
 30
-1.0000000000E+20
  9
$PLIMMIN
 10
0.0
 20
0.0
  9
$PLIMMAX
 10
12.0
 20
9.0
  9
$UNITMODE
 70
     0
  9
$VISRETAIN
 70
     1
  9
$PLINEGEN
 70
     0
  9
$PSLTSCALE
 70
     1
  9
$TREEDEPTH
 70
  3020
  9
$CMLSTYLE
  2
Standard
  9
$CMLJUST
 70
     0
  9
$CMLSCALE
 40
1.0
  9
$PROXYGRAPHICS
 70
     1
  9
$MEASUREMENT
 70
     0
  9
$CELWEIGHT
370
    -1
  9
$ENDCAPS
280
     0
  9
$JOINSTYLE
280
     0
  9
$LWDISPLAY
290
     1
  9
$INSUNITS
 70
     1
  9
$HYPERLINKBASE
  1

  9
$STYLESHEET
  1

  9
$XEDIT
290
     1
  9
$CEPSNTYPE
380
     0
  9
$PSTYLEMODE
290
     1
  9
$FINGERPRINTGUID
  2
{A0B29379-D0C3-402F-B8DC-B2BA1600A29A}
  9
$VERSIONGUID
  2
{FAEB1C32-E019-11D5-929B-00C0DF256EC4}
  9
$EXTNAMES
290
     1
  9
$PSVPSCALE
 40
0.0
  9
$OLESTARTUP
290
     0
  9
$SORTENTS
280
   127
  9
$INDEXCTL
280
     0
  9
$HIDETEXT
280
     1
  9
$XCLIPFRAME
280
     2
  9
$HALOGAP
280
     0
  9
$OBSCOLOR
 70
   257
  9
$OBSLTYPE
280
     0
  9
$INTERSECTIONDISPLAY
280
     0
  9
$INTERSECTIONCOLOR
 70
   257
  9
$DIMASSOC
280
     2
  9
$PROJECTNAME
  1

  9
$CAMERADISPLAY
290
     0
  9
$LENSLENGTH
 40
50.0
  9
$CAMERAHEIGHT
 40
0.0
  9
$STEPSPERSEC
 40
2.0
  9
$STEPSIZE
 40
6.0
  9
$3DDWFPREC
 40
2.0
  9
$PSOLWIDTH
 40
0.25
  9
$PSOLHEIGHT
 40
4.0
  9
$LOFTANG1
 40
1.5707963268
  9
$LOFTANG2
 40
1.5707963268
  9
$LOFTMAG1
 40
0.0
  9
$LOFTMAG2
 40
0.0
  9
$LOFTPARAM
 70
     7
  9
$LOFTNORMALS
280
     1
  9
$LATITUDE
 40
37.795
  9
$LONGITUDE
 40
-122.394
  9
$NORTHDIRECTION
 40
0.0
  9
$TIMEZONE
 70
 -8000
  9
$LIGHTGLYPHDISPLAY
280
     1
  9
$TILEMODELIGHTSYNCH
280
     1
  9
$CMATERIAL
347
44
  9
$SOLIDHIST
280
     1
  9
$SHOWHIST
280
     1
  9
$DWFFRAME
280
     2
  9
$DGNFRAME
280
     2
  9
$REALWORLDSCALE
290
     1
  9
$INTERFERECOLOR
 62
   256
  9
$CSHADOW
280
     0
  9
$SHADOWPLANELOCATION
 40
0.0
  0
ENDSEC
  0
SECTION
  2
CLASSES
  0
CLASS
  1
ACDBDICTIONARYWDFLT
  2
AcDbDictionaryWithDefault
  3
ObjectDBX Classes
 90
        0
 91
        4
280
     0
281
     0
  0
CLASS
  1
VISUALSTYLE
  2
AcDbVisualStyle
  3
ObjectDBX Classes
 90
     4095
 91
        4
280
     0
281
     0
  0
CLASS
  1
MATERIAL
  2
AcDbMaterial
  3
ObjectDBX Classes
 90
     1153
 91
        4
280
     0
281
     0
  0
CLASS
  1
SCALE
  2
AcDbScale
  3
ObjectDBX Classes
 90
     1153
 91
        4
280
     0
281
     0
  0
CLASS
  1
SUN
  2
AcDbSun
  3
SCENEOE
 90
     1153
 91
        4
280
     0
281
     0
  0
CLASS
  1
DICTIONARYVAR
  2
AcDbDictionaryVar
  3
ObjectDBX Classes
 90
        0
 91
        4
280
     0
281
     0
  0
ENDSEC
  0
SECTION
  2
TABLES
  0
TABLE
  2
VPORT
  5
8
330
0
100
AcDbSymbolTable
 70
     1
  0
VPORT
  5
29
330
8
100
AcDbSymbolTableRecord
100
AcDbViewportTableRecord
  2
*Active
 70
     0
 10
0.0
 20
0.0
 11
1.0
 21
1.0
 12
50.0
 22
75.0
 13
0.0
 23
0.0
 14
0.5
 24
0.5
 15
0.5
 25
0.5
 16
0.0
 26
0.0
 36
1.0
 17
0.0
 27
0.0
 37
0.0
 40
150.0
 41
0.6666666667
 42
50.0
 43
0.0
 44
0.0
 50
0.0
 51
0.0
 71
     0
 72
  2000
 73
     1
 74
     3
 75
     0
 76
     0
 77
     0
 78
     0
281
     0
 65
     1
110
0.0
120
0.0
130
0.0
111
1.0
121
0.0
131
0.0
112
0.0
122
1.0
132
0.0
 79
     0
146
0.0
 60
     3
 61
     5
292
     1
282
     1
141
0.0
142
0.0
 63
   250
361
69
  0
ENDTAB
  0
TABLE
  2
LTYPE
  5
5
330
0
100
AcDbSymbolTable
 70
     6
  0
LTYPE
  5
14
330
5
100
AcDbSymbolTableRecord
100
AcDbLinetypeTableRecord
  2
ByBlock
 70
     0
  3

 72
    65
 73
     0
 40
0.0
  0
LTYPE
  5
15
330
5
100
AcDbSymbolTableRecord
100
AcDbLinetypeTableRecord
  2
ByLayer
 70
     0
  3

 72
    65
 73
     0
 40
0.0
  0
LTYPE
  5
16
330
5
100
AcDbSymbolTableRecord
100
AcDbLinetypeTableRecord
  2
Continuous
 70
     0
  3
Solid line
 72
    65
 73
     0
 40
0.0
  0
LTYPE
  5
6A
330
5
100
AcDbSymbolTableRecord
100
AcDbLinetypeTableRecord
  2
HIDDEN
 70
     0
  3
Hidden __ __ __ __ __ __ __ __ __ __ __ __ __ __
 72
    65
 73
     2
 40
0.075
 49
0.05
 74
     0
 49
-0.025
 74
     0
  0
LTYPE
  5
6B
330
5
100
AcDbSymbolTableRecord
100
AcDbLinetypeTableRecord
  2
PHANTOM
 70
     0
  3
Phantom ______  __  __  ______  __  __  ______
 72
    65
 73
     6
 40
0.5
 49
0.25
 74
     0
 49
-0.05
 74
     0
 49
0.05
 74
     0
 49
-0.05
 74
     0
 49
0.05
 74
     0
 49
-0.05
 74
     0
  0
LTYPE
  5
6C
330
5
100
AcDbSymbolTableRecord
100
AcDbLinetypeTableRecord
  2
CENTER
 70
     0
  3
Center ____ _ ____ _ ____ _ ____ _ ____ _ ____
 72
    65
 73
     4
 40
0.4
 49
0.25
 74
     0
 49
-0.05
 74
     0
 49
0.05
 74
     0
 49
-0.05
 74
     0
  0
LTYPE
  5
6D
330
5
100
AcDbSymbolTableRecord
100
AcDbLinetypeTableRecord
  2
CENTERX2
 70
     0
  3
Center (2x) ________  __  ________  __  _____
 72
    65
 73
     4
 40
0.8
 49
0.5
 74
     0
 49
-0.1
 74
     0
 49
0.1
 74
     0
 49
-0.1
 74
     0
  0
LTYPE
  5
6E
330
5
100
AcDbSymbolTableRecord
100
AcDbLinetypeTableRecord
  2
DOT2
 70
     0
  3
Dot (.5x) ........................................
 72
    65
 73
     2
 40
0.025
 49
0.0
 74
     0
 49
-0.025
 74
     0
  0
ENDTAB
  0
TABLE
  2
LAYER
  5
2
330
0
100
AcDbSymbolTable
 70
     1
  0
LAYER
  5
10
330
2
100
AcDbSymbolTableRecord
100
AcDbLayerTableRecord
  2
0
 70
     0
 62
     7
  6
Continuous
370
    -3
390
F
347
46
  0
ENDTAB
  0
TABLE
  2
STYLE
  5
3
330
0
100
AcDbSymbolTable
 70
     1
  0
STYLE
  5
11
330
3
100
AcDbSymbolTableRecord
100
AcDbTextStyleTableRecord
  2
STANDARD
 70
     0
 40
0.0
 41
1.0
 50
0.0
 71
     0
 42
0.1377952756
  3
GOTHIC.TTF
  4

1001
ACAD
1000
CENTURY GOTHIC
1071
       34
  0
ENDTAB
  0
TABLE
  2
VIEW
  5
6
330
0
100
AcDbSymbolTable
 70
     0
  0
ENDTAB
  0
TABLE
  2
UCS
  5
7
330
0
100
AcDbSymbolTable
 70
     0
  0
ENDTAB
  0
TABLE
  2
APPID
  5
9
330
0
100
AcDbSymbolTable
 70
     1
  0
APPID
  5
12
330
9
100
AcDbSymbolTableRecord
100
AcDbRegAppTableRecord
  2
ACAD
 70
     0
  0
ENDTAB
  0
TABLE
  2
DIMSTYLE
  5
A
330
0
100
AcDbSymbolTable
 70
     1
100
AcDbDimStyleTable
  0
DIMSTYLE
105
27
330
A
100
AcDbSymbolTableRecord
100
AcDbDimStyleTableRecord
  2
Standard
 70
     0
178
     0
340
11
  0
ENDTAB
  0
TABLE
  2
BLOCK_RECORD
  5
1
330
0
100
AcDbSymbolTable
 70
     1
  0
BLOCK_RECORD
  5
1F
330
1
100
AcDbSymbolTableRecord
100
AcDbBlockTableRecord
  2
*Model_Space
340
22
 70
     0
280
     1
281
     0
  0
BLOCK_RECORD
  5
1B
330
1
100
AcDbSymbolTableRecord
100
AcDbBlockTableRecord
  2
*Paper_Space
340
1E
 70
     0
280
     1
281
     0
  0
BLOCK_RECORD
  5
23
330
1
100
AcDbSymbolTableRecord
100
AcDbBlockTableRecord
  2
*Paper_Space0
340
26
 70
     0
280
     1
281
     0
  0
ENDTAB
  0
ENDSEC
  0
SECTION
  2
BLOCKS
  0
BLOCK
  5
20
330
1F
100
AcDbEntity
  8
0
100
AcDbBlockBegin
  2
*Model_Space
 70
     0
 10
0.0
 20
0.0
 30
0.0
  3
*Model_Space
  1
*Model_Space
  0
ENDBLK
  5
21
330
1F
100
AcDbEntity
  8
0
100
AcDbBlockEnd
  0
BLOCK
  5
1C
330
1B
100
AcDbEntity
 67
     1
  8
0
100
AcDbBlockBegin
  2
*Paper_Space
 70
     0
 10
0.0
 20
0.0
 30
0.0
  3
*Paper_Space
  1
*Paper_Space
  0
ENDBLK
  5
1D
330
1B
100
AcDbEntity
 67
     1
  8
0
100
AcDbBlockEnd
  0
BLOCK
  5
24
330
23
100
AcDbEntity
  8
0
100
AcDbBlockBegin
  2
*Paper_Space0
 70
     0
 10
0.0
 20
0.0
 30
0.0
  3
*Paper_Space0
  1
*Paper_Space0
  0
ENDBLK
  5
25
330
23
100
AcDbEntity
  8
0
100
AcDbBlockEnd
  0
ENDSEC
  0
SECTION
  2
ENTITIES
  0
CIRCLE
  5
6F
330
1F
100
AcDbEntity
  8
0
  6
Continuous
 62
     7
370
    15
100
AcDbCircle
 10
53.1521326023
 20
78.9442742863
 30
0.0
 40
0.0939999999999955
  0
CIRCLE
  5
70
330
1F
100
AcDbEntity
  8
0
  6
Continuous
 62
     7
370
    15
100
AcDbCircle
 10
32.3581326023
 20
78.9442742863
 30
0.0
 40
0.102499999999992
  0
CIRCLE
  5
71
330
1F
100
AcDbEntity
  8
0
  6
Continuous
 62
     7
370
    15
100
AcDbCircle
 10
53.1521326023
 20
78.9442742863
 30
0.0
 40
0.102499999999992
  0
ARC
  5
72
330
1F
100
AcDbEntity
  8
0
  6
Continuous
 62
     7
370
    15
100
AcDbCircle
 10
32.1106326023
 20
79.4817742863
 30
0.0
 40
0.0625000000000071
100
AcDbArc
 50
90.0
 51
180.0
  0
LINE
  5
73
330
1F
100
AcDbEntity
  8
0
  6
Continuous
 62
     7
370
    15
100
AcDbLine
 10
53.3996326947
 20
79.5442742485
 30
0.0
 11
32.1106323337
 21
79.5442742485
 31
0.0
  0
ARC
  5
74
330
1F
100
AcDbEntity
  8
0
  6
Continuous
 62
     7
370
    15
100
AcDbCircle
 10
53.3996326023
 20
79.4817742863
 30
0.0
 40
0.0625
100
AcDbArc
 50
0.0
 51
90.0
  0
LINE
  5
75
330
1F
100
AcDbEntity
  8
0
  6
Continuous
 62
     7
370
    15
100
AcDbLine
 10
53.4621330927
 20
64.3627741065
 30
0.0
 11
53.4621330927
 21
79.4817738505
 31
0.0
  0
ARC
  5
76
330
1F
100
AcDbEntity
  8
0
  6
Continuous
 62
     7
370
    15
100
AcDbCircle
 10
53.3996326023
 20
64.3627742863
 30
0.0
 40
0.0625000000000142
100
AcDbArc
 50
270.0
 51
0.0
  0
LINE
  5
77
330
1F
100
AcDbEntity
  8
0
  6
Continuous
 62
     7
370
    15
100
AcDbLine
 10
53.3996326947
 20
64.3002742952
 30
0.0
 11
32.1106323337
 21
64.3002742952
 31
0.0
  0
ARC
  5
78
330
1F
100
AcDbEntity
  8
0
  6
Continuous
 62
     7
370
    15
100
AcDbCircle
 10
32.1106326023
 20
64.3627742863
 30
0.0
 40
0.0625000000000142
100
AcDbArc
 50
180.0
 51
270.0
  0
LINE
  5
79
330
1F
100
AcDbEntity
  8
0
  6
Continuous
 62
     7
370
    15
100
AcDbLine
 10
32.048133109
 20
64.3627741065
 30
0.0
 11
32.048133109
 21
79.4817738505
 31
0.0
  0
CIRCLE
  5
7A
330
1F
100
AcDbEntity
  8
0
  6
Continuous
 62
     7
370
    15
100
AcDbCircle
 10
42.7551326023
 20
78.9442742863
 30
0.0
 40
0.102499999999992
  0
CIRCLE
  5
7B
330
1F
100
AcDbEntity
  8
0
  6
Continuous
 62
     7
370
    15
100
AcDbCircle
 10
53.1521326023
 20
64.9002742863
 30
0.0
 40
0.1025000000000063
  0
CIRCLE
  5
7C
330
1F
100
AcDbEntity
  8
0
  6
Continuous
 62
     7
370
    15
100
AcDbCircle
 10
32.3581326023
 20
64.9002742863
 30
0.0
 40
0.1025000000000063
  0
CIRCLE
  5
7D
330
1F
100
AcDbEntity
  8
0
  6
Continuous
 62
     7
370
    15
100
AcDbCircle
 10
53.1521326023
 20
71.9222742863
 30
0.0
 40
0.1025000000000063
  0
CIRCLE
  5
7E
330
1F
100
AcDbEntity
  8
0
  6
Continuous
 62
     7
370
    15
100
AcDbCircle
 10
32.3581326023
 20
71.9222742863
 30
0.0
 40
0.1025000000000063
  0
CIRCLE
  5
7F
330
1F
100
AcDbEntity
  8
0
  6
Continuous
 62
     7
370
    15
100
AcDbCircle
 10
42.7551326023
 20
64.9002742863
 30
0.0
 40
0.1025000000000063
  0
LINE
  5
80
330
1F
100
AcDbEntity
  8
0
  6
Continuous
 62
     7
370
    15
100
AcDbLine
 10
54.2521328199
 20
80.3947738635
 30
0.0
 11
54.2521328199
 21
63.4497740936
 31
0.0
  0
LINE
  5
81
330
1F
100
AcDbEntity
  8
0
  6
Continuous
 62
     7
370
    15
100
AcDbLine
 10
53.5221331462
 20
63.4497740936
 30
0.0
 11
54.2521328199
 21
63.4497740936
 31
0.0
  0
LINE
  5
82
330
1F
100
AcDbEntity
  8
0
  6
Continuous
 62
     7
370
    15
100
AcDbLine
 10
53.5221331462
 20
80.3947738635
 30
0.0
 11
53.5221331462
 21
63.4497740936
 31
0.0
  0
LINE
  5
83
330
1F
100
AcDbEntity
  8
0
  6
Continuous
 62
     7
370
    15
100
AcDbLine
 10
54.2521328199
 20
80.3947738635
 30
0.0
 11
53.5221331462
 21
80.3947738635
 31
0.0
  0
LINE
  5
84
330
1F
100
AcDbEntity
  8
0
  6
Continuous
 62
     7
370
    15
100
AcDbLine
 10
31.2581322085
 20
63.4497740936
 30
0.0
 11
31.2581322085
 21
80.3947738635
 31
0.0
  0
LINE
  5
85
330
1F
100
AcDbEntity
  8
0
  6
Continuous
 62
     7
370
    15
100
AcDbLine
 10
31.9881330555
 20
63.4497740936
 30
0.0
 11
31.9881330555
 21
80.3947738635
 31
0.0
  0
LINE
  5
86
330
1F
100
AcDbEntity
  8
0
  6
Continuous
 62
     7
370
    15
100
AcDbLine
 10
31.2581322085
 20
63.4497740936
 30
0.0
 11
31.9881330555
 21
63.4497740936
 31
0.0
  0
LINE
  5
87
330
1F
100
AcDbEntity
  8
0
  6
Continuous
 62
     7
370
    15
100
AcDbLine
 10
31.9881330555
 20
80.3947738635
 30
0.0
 11
31.2581322085
 21
80.3947738635
 31
0.0
  0
LINE
  5
88
330
1F
100
AcDbEntity
  8
0
  6
Continuous
 62
     7
370
    15
100
AcDbLine
 10
31.9881330555
 20
80.3337741415
 30
0.0
 11
53.5221331462
 21
80.3337741415
 31
0.0
  0
LINE
  5
89
330
1F
100
AcDbEntity
  8
0
  6
Continuous
 62
     7
370
    15
100
AcDbLine
 10
31.9881330555
 20
79.6037744678
 30
0.0
 11
53.5221331462
 21
79.6037744678
 31
0.0
  0
LINE
  5
8A
330
1F
100
AcDbEntity
  8
0
  6
Continuous
 62
     7
370
    15
100
AcDbLine
 10
53.5221331462
 20
63.5107744022
 30
0.0
 11
53.5221331462
 21
64.2407740759
 31
0.0
  0
LINE
  5
8B
330
1F
100
AcDbEntity
  8
0
  6
Continuous
 62
     7
370
    15
100
AcDbLine
 10
31.9881330555
 20
63.5107744022
 30
0.0
 11
53.5221331462
 21
63.5107744022
 31
0.0
  0
LINE
  5
8C
330
1F
100
AcDbEntity
  8
0
  6
Continuous
 62
     7
370
    15
100
AcDbLine
 10
31.9881330555
 20
64.2407740759
 30
0.0
 11
31.9881330555
 21
63.5107744022
 31
0.0
  0
LINE
  5
8D
330
1F
100
AcDbEntity
  8
0
  6
Continuous
 62
     7
370
    15
100
AcDbLine
 10
31.9881330555
 20
64.2407740759
 30
0.0
 11
53.5221331462
 21
64.2407740759
 31
0.0
  0
LINE
  5
8E
330
1F
100
AcDbEntity
  8
0
  6
Continuous
 62
     7
370
    15
100
AcDbLine
 10
53.3800010388
 20
100.1930456319
 30
0.0
 11
52.6500013651
 21
100.1930456319
 31
0.0
  0
LINE
  5
8F
330
1F
100
AcDbEntity
  8
0
  6
Continuous
 62
     7
370
    15
100
AcDbLine
 10
53.3800010388
 20
100.1930456319
 30
0.0
 11
53.3800010388
 21
91.7355460536
 31
0.0
  0
LINE
  5
90
330
1F
100
AcDbEntity
  8
0
  6
Continuous
 62
     7
370
    15
100
AcDbLine
 10
53.3800010388
 20
91.7355460536
 30
0.0
 11
52.6500013651
 21
91.7355460536
 31
0.0
  0
LINE
  5
91
330
1F
100
AcDbEntity
  8
0
  6
Continuous
 62
     7
370
    15
100
AcDbLine
 10
52.6500013651
 20
100.1930456319
 30
0.0
 11
52.6500013651
 21
91.7355460536
 31
0.0
  0
LINE
  5
92
330
1F
100
AcDbEntity
  8
0
  6
Continuous
 62
     7
370
    15
100
AcDbLine
 10
53.3800010388
 20
84.3970462419
 30
0.0
 11
52.6500013651
 21
84.3970462419
 31
0.0
  0
LINE
  5
93
330
1F
100
AcDbEntity
  8
0
  6
Continuous
 62
     7
370
    15
100
AcDbLine
 10
53.3800010388
 20
91.7355460536
 30
0.0
 11
53.3800010388
 21
84.3970462419
 31
0.0
  0
LINE
  5
94
330
1F
100
AcDbEntity
  8
0
  6
Continuous
 62
     7
370
    15
100
AcDbLine
 10
52.6500013651
 20
91.7355460536
 30
0.0
 11
52.6500013651
 21
84.3970462419
 31
0.0
  0
LINE
  5
95
330
1F
100
AcDbEntity
  8
0
  6
Continuous
 62
     7
370
    15
100
AcDbLine
 10
31.1160012744
 20
100.1930456319
 30
0.0
 11
30.3860004274
 21
100.1930456319
 31
0.0
  0
LINE
  5
96
330
1F
100
AcDbEntity
  8
0
  6
Continuous
 62
     7
370
    15
100
AcDbLine
 10
31.1160012744
 20
100.1930456319
 30
0.0
 11
31.1160012744
 21
91.7355460536
 31
0.0
  0
LINE
  5
97
330
1F
100
AcDbEntity
  8
0
  6
Continuous
 62
     7
370
    15
100
AcDbLine
 10
31.1160012744
 20
91.7355460536
 30
0.0
 11
30.3860004274
 21
91.7355460536
 31
0.0
  0
LINE
  5
98
330
1F
100
AcDbEntity
  8
0
  6
Continuous
 62
     7
370
    15
100
AcDbLine
 10
30.3860004274
 20
100.1930456319
 30
0.0
 11
30.3860004274
 21
91.7355460536
 31
0.0
  0
LINE
  5
99
330
1F
100
AcDbEntity
  8
0
  6
Continuous
 62
     7
370
    15
100
AcDbLine
 10
31.1160012744
 20
84.3970462419
 30
0.0
 11
30.3860004274
 21
84.3970462419
 31
0.0
  0
LINE
  5
9A
330
1F
100
AcDbEntity
  8
0
  6
Continuous
 62
     7
370
    15
100
AcDbLine
 10
30.3860004274
 20
91.7355460536
 30
0.0
 11
30.3860004274
 21
84.3970462419
 31
0.0
  0
LINE
  5
9B
330
1F
100
AcDbEntity
  8
0
  6
Continuous
 62
     7
370
    15
100
AcDbLine
 10
31.1160012744
 20
91.7355460536
 30
0.0
 11
31.1160012744
 21
84.3970462419
 31
0.0
  0
LINE
  5
9C
330
1F
100
AcDbEntity
  8
0
  6
Continuous
 62
     7
370
    15
100
AcDbLine
 10
31.1160012744
 20
91.7300461172
 30
0.0
 11
52.6500013651
 21
91.7300461172
 31
0.0
  0
LINE
  5
9D
330
1F
100
AcDbEntity
  8
0
  6
Continuous
 62
     7
370
    15
100
AcDbLine
 10
31.1160012744
 20
92.319046193
 30
0.0
 11
52.6500013651
 21
92.319046193
 31
0.0
  0
LINE
  5
9E
330
1F
100
AcDbEntity
  8
0
  6
Continuous
 62
     7
370
    15
100
AcDbLine
 10
31.1160012744
 20
84.3975460762
 30
0.0
 11
52.6500013651
 21
84.3975460762
 31
0.0
  0
CIRCLE
  5
9F
330
1F
100
AcDbEntity
  8
0
  6
Continuous
 62
     7
370
    15
100
AcDbCircle
 10
32.1261884367
 20
88.7372263962
 30
0.0
 40
0.4765000000000015
  0
CIRCLE
  5
A0
330
1F
100
AcDbEntity
  8
0
  6
Continuous
 62
     7
370
    15
100
AcDbCircle
 10
51.6342527897
 20
88.7372263962
 30
0.0
 40
0.4765000000000015
  0
CIRCLE
  5
A1
330
1F
100
AcDbEntity
  8
0
  6
Continuous
 62
     7
370
    15
100
AcDbCircle
 10
32.1317488527
 20
88.7372263962
 30
0.0
 40
0.21875
  0
CIRCLE
  5
A2
330
1F
100
AcDbEntity
  8
0
  6
Continuous
 62
     7
370
    15
100
AcDbCircle
 10
51.6342527897
 20
88.7372263962
 30
0.0
 40
0.21875
  0
LINE
  5
A3
330
1F
100
AcDbEntity
  8
0
  6
Continuous
 62
     7
370
    15
100
AcDbLine
 10
31.1160012744
 20
99.6676435947
 30
0.0
 11
52.6500013651
 21
99.6676435947
 31
0.0
  0
LWPOLYLINE
  5
A4
330
1F
100
AcDbEntity
  8
0
  6
Continuous
 62
     7
370
    15
100
AcDbPolyline
 90
       37
 70
   128
 43
0.0
 10
32.1317489004
 20
98.5509012954
 10
32.2144925846
 20
98.5560204896
 10
32.2947218444
 20
98.5712208473
 10
32.3699985215
 20
98.5960424273
 10
32.4380369888
 20
98.6297296114
 10
32.4967686837
 20
98.671259265
 10
32.54441016
 20
98.7193700692
 10
32.5795123678
 20
98.7725988943
 10
32.6010099328
 20
98.8293289057
 10
32.6082493158
 20
98.8878376698
 10
32.6010099328
 20
98.9463464339
 10
32.5795123678
 20
99.0030764452
 10
32.54441016
 20
99.0563064436
 10
32.4967686837
 20
99.1044160745
 10
32.4380369888
 20
99.1459457281
 10
32.3699985215
 20
99.1796329122
 10
32.2947218444
 20
99.2044544922
 10
32.2144925846
 20
99.2196548499
 10
32.1317489004
 20
99.2247740441
 10
32.0490052163
 20
99.2196548499
 10
31.9687759564
 20
99.2044544922
 10
31.8934992794
 20
99.1796329122
 10
31.825460812
 20
99.1459457281
 10
31.7667291172
 20
99.1044160745
 10
31.7190876408
 20
99.0563064436
 10
31.683985433
 20
99.0030764452
 10
31.662487868
 20
98.9463464339
 10
31.655248485
 20
98.8878376698
 10
31.662487868
 20
98.8293289057
 10
31.683985433
 20
98.7725988943
 10
31.7190876408
 20
98.7193700692
 10
31.7667291172
 20
98.671259265
 10
31.825460812
 20
98.6297296114
 10
31.8934992794
 20
98.5960424273
 10
31.9687759564
 20
98.5712208473
 10
32.0490052163
 20
98.5560204896
 10
32.1317489004
 20
98.5509012954
  0
LWPOLYLINE
  5
A5
330
1F
100
AcDbEntity
  8
0
  6
Continuous
 62
     7
370
    15
100
AcDbPolyline
 90
       37
 70
   128
 43
0.0
 10
51.6342525658
 20
98.5509012954
 10
51.71699625
 20
98.5560204896
 10
51.7972255098
 20
98.5712208473
 10
51.8725027735
 20
98.5960424273
 10
51.9405412409
 20
98.6297296114
 10
51.9992729357
 20
98.671259265
 10
52.0469138254
 20
98.7193700692
 10
52.0820160332
 20
98.7725988943
 10
52.1035135982
 20
98.8293289057
 10
52.1107529813
 20
98.8878376698
 10
52.1035135982
 20
98.9463464339
 10
52.0820160332
 20
99.0030764452
 10
52.0469138254
 20
99.0563064436
 10
51.9992729357
 20
99.1044160745
 10
51.9405412409
 20
99.1459457281
 10
51.8725027735
 20
99.1796329122
 10
51.7972255098
 20
99.2044544922
 10
51.71699625
 20
99.2196548499
 10
51.6342525658
 20
99.2247740441
 10
51.5515094683
 20
99.2196548499
 10
51.4712802085
 20
99.2044544922
 10
51.3960029448
 20
99.1796329122
 10
51.3279644774
 20
99.1459457281
 10
51.2692327826
 20
99.1044160745
 10
51.2215918929
 20
99.0563064436
 10
51.1864890984
 20
99.0030764452
 10
51.1649921201
 20
98.9463464339
 10
51.1577527371
 20
98.8878376698
 10
51.1649921201
 20
98.8293289057
 10
51.1864890984
 20
98.7725988943
 10
51.2215918929
 20
98.7193700692
 10
51.2692327826
 20
98.671259265
 10
51.3279644774
 20
98.6297296114
 10
51.3960029448
 20
98.5960424273
 10
51.4712802085
 20
98.5712208473
 10
51.5515094683
 20
98.5560204896
 10
51.6342525658
 20
98.5509012954
  0
LWPOLYLINE
  5
A6
330
1F
100
AcDbEntity
  8
0
  6
Continuous
 62
     7
370
    15
100
AcDbPolyline
 90
       17
 70
   128
 43
0.0
 10
52.0830872742
 20
98.7747003101
 10
52.0820160332
 20
98.7768028991
 10
52.0469138254
 20
98.8300317242
 10
51.9992729357
 20
98.8781425284
 10
51.9405412409
 20
98.919672182
 10
51.8725027735
 20
98.9533593662
 10
51.7972255098
 20
98.9781797728
 10
51.71699625
 20
98.9933813038
 10
51.6342525658
 20
98.998500498
 10
51.5515094683
 20
98.9933813038
 10
51.4712802085
 20
98.9781797728
 10
51.3960029448
 20
98.9533593662
 10
51.3279644774
 20
98.919672182
 10
51.2692327826
 20
98.8781425284
 10
51.2215918929
 20
98.8300317242
 10
51.1864890984
 20
98.7768028991
 10
51.1854184441
 20
98.7747003101
  0
LWPOLYLINE
  5
A7
330
1F
100
AcDbEntity
  8
0
  6
Continuous
 62
     7
370
    15
100
AcDbPolyline
 90
       17
 70
   128
 43
0.0
 10
32.5805836088
 20
98.7747003101
 10
32.5795123678
 20
98.7768028991
 10
32.54441016
 20
98.8300317242
 10
32.4967686837
 20
98.8781425284
 10
32.4380369888
 20
98.919672182
 10
32.3699985215
 20
98.9533593662
 10
32.2947218444
 20
98.9781797728
 10
32.2144925846
 20
98.9933813038
 10
32.1317489004
 20
98.998500498
 10
32.0490052163
 20
98.9933813038
 10
31.9687759564
 20
98.9781797728
 10
31.8934992794
 20
98.9533593662
 10
31.825460812
 20
98.919672182
 10
31.7667291172
 20
98.8781425284
 10
31.7190876408
 20
98.8300317242
 10
31.683985433
 20
98.7768028991
 10
31.6829141921
 20
98.7747003101
  0
LWPOLYLINE
  5
A8
330
1F
100
AcDbEntity
  8
0
  6
Continuous
 62
     7
370
    15
100
AcDbPolyline
 90
       19
 70
   128
 43
0.0
 10
51.4513560653
 20
98.5767096373
 10
51.4448095276
 20
98.5842235771
 10
51.4229564467
 20
98.6215292795
 10
51.4155029328
 20
98.6615641237
 10
51.4229564467
 20
98.7015977945
 10
51.4448095276
 20
98.7389034969
 10
51.4795732327
 20
98.7709386468
 10
51.5248780427
 20
98.7955196962
 10
51.5776363665
 20
98.8109723177
 10
51.6342525658
 20
98.8162428702
 10
51.6908693518
 20
98.8109723177
 10
51.7436276756
 20
98.7955196962
 10
51.7889324856
 20
98.7709386468
 10
51.823695604
 20
98.7389034969
 10
51.8455492716
 20
98.7015977945
 10
51.8530027855
 20
98.6615641237
 10
51.8455492716
 20
98.6215292795
 10
51.823695604
 20
98.5842235771
 10
51.817149653
 20
98.5767096373
  0
LWPOLYLINE
  5
A9
330
1F
100
AcDbEntity
  8
0
  6
Continuous
 62
     7
370
    15
100
AcDbPolyline
 90
       19
 70
   128
 43
0.0
 10
31.9488518133
 20
98.5767096373
 10
31.9423058622
 20
98.5842235771
 10
31.9204527813
 20
98.6215292795
 10
31.9129986808
 20
98.6615641237
 10
31.9204527813
 20
98.7015977945
 10
31.9423058622
 20
98.7389034969
 10
31.9770689806
 20
98.7709386468
 10
32.0223743773
 20
98.7955196962
 10
32.0751327011
 20
98.8109723177
 10
32.1317489004
 20
98.8162428702
 10
32.1883650997
 20
98.8109723177
 10
32.2411234236
 20
98.7955196962
 10
32.2864288202
 20
98.7709386468
 10
32.3211919386
 20
98.7389034969
 10
32.3430450195
 20
98.7015977945
 10
32.3504991201
 20
98.6615641237
 10
32.3430450195
 20
98.6215292795
 10
32.3211919386
 20
98.5842235771
 10
32.3146459876
 20
98.5767096373
  0
LINE
  5
AA
330
1F
100
AcDbEntity
  8
0
  6
Continuous
 62
     7
370
    15
100
AcDbLine
 10
31.1160012744
 20
99.6928277304
 30
0.0
 11
52.6500013651
 21
99.6928277304
 31
0.0
  0
LINE
  5
AB
330
1F
100
AcDbEntity
  8
0
  6
Continuous
 62
     7
370
    15
100
AcDbLine
 10
31.1160012744
 20
100.1360434104
 30
0.0
 11
52.6500013651
 21
100.1360434104
 31
0.0
  0
LINE
  5
AC
330
1F
100
AcDbEntity
  8
0
  6
Continuous
 62
     7
370
    15
100
AcDbLine
 10
31.1160012744
 20
84.3970462419
 30
0.0
 11
52.6500013651
 21
84.3970462419
 31
0.0
  0
CIRCLE
  5
AD
330
1F
100
AcDbEntity
  8
0
  6
Continuous
 62
     7
370
    15
100
AcDbCircle
 10
40.6430393438
 20
54.437356644
 30
0.0
 40
0.0825000000000173
  0
CIRCLE
  5
AE
330
1F
100
AcDbEntity
  8
0
  6
Continuous
 62
     7
370
    15
100
AcDbCircle
 10
43.9932454954
 20
54.437356644
 30
0.0
 40
0.0825000000000173
  0
ARC
  5
AF
330
1F
100
AcDbEntity
  8
0
  6
Continuous
 62
     7
370
    15
100
AcDbCircle
 10
40.5031424196
 20
54.5536933485
 30
0.0
 40
0.125
100
AcDbArc
 50
90.0
 51
179.9999999995
  0
LINE
  5
B0
330
1F
100
AcDbEntity
  8
0
  6
Continuous
 62
     7
370
    15
100
AcDbLine
 10
44.1331424548
 20
54.6786932969
 30
0.0
 11
40.5031422955
 21
54.6786932969
 31
0.0
  0
ARC
  5
B1
330
1F
100
AcDbEntity
  8
0
  6
Continuous
 62
     7
370
    15
100
AcDbCircle
 10
44.1331424196
 20
54.5536933485
 30
0.0
 40
0.1249999999999929
100
AcDbArc
 50
0.0
 51
90.0000000002
  0
ARC
  5
B2
330
1F
100
AcDbEntity
  8
0
  6
Continuous
 62
     7
370
    15
100
AcDbCircle
 10
44.1331424196
 20
51.5186933485
 30
0.0
 40
0.125000000000334
100
AcDbArc
 50
270.0
 51
359.9999999996
  0
LINE
  5
B3
330
1F
100
AcDbEntity
  8
0
  6
Continuous
 62
     7
370
    15
100
AcDbLine
 10
40.5031422955
 20
51.3936932988
 30
0.0
 11
44.1331424548
 21
51.3936932988
 31
0.0
  0
ARC
  5
B4
330
1F
100
AcDbEntity
  8
0
  6
Continuous
 62
     7
370
    15
100
AcDbCircle
 10
40.9331424196
 20
54.1186933485
 30
0.0
 40
0.1250000000000071
100
AcDbArc
 50
90.0
 51
180.0
  0
LINE
  5
B5
330
1F
100
AcDbEntity
  8
0
  6
Continuous
 62
     7
370
    15
100
AcDbLine
 10
40.8081423721
 20
51.9536933096
 30
0.0
 11
40.8081423721
 21
54.118693286
 31
0.0
  0
ARC
  5
B6
330
1F
100
AcDbEntity
  8
0
  6
Continuous
 62
     7
370
    15
100
AcDbCircle
 10
40.9331424196
 20
51.9536933485
 30
0.0
 40
0.1250000000000071
100
AcDbArc
 50
180.0
 51
270.0
  0
LINE
  5
B7
330
1F
100
AcDbEntity
  8
0
  6
Continuous
 62
     7
370
    15
100
AcDbLine
 10
43.7031423888
 20
51.8286933937
 30
0.0
 11
40.9331424348
 21
51.8286933937
 31
0.0
  0
ARC
  5
B8
330
1F
100
AcDbEntity
  8
0
  6
Continuous
 62
     7
370
    15
100
AcDbCircle
 10
43.7031424196
 20
51.9536933485
 30
0.0
 40
0.125
100
AcDbArc
 50
270.0
 51
0.0
  0
LINE
  5
B9
330
1F
100
AcDbEntity
  8
0
  6
Continuous
 62
     7
370
    15
100
AcDbLine
 10
43.8281424515
 20
51.9536933096
 30
0.0
 11
43.8281424515
 21
54.118693286
 31
0.0
  0
ARC
  5
BA
330
1F
100
AcDbEntity
  8
0
  6
Continuous
 62
     7
370
    15
100
AcDbCircle
 10
43.7031424196
 20
54.1186933485
 30
0.0
 40
0.125
100
AcDbArc
 50
0.0
 51
90.0
  0
LINE
  5
BB
330
1F
100
AcDbEntity
  8
0
  6
Continuous
 62
     7
370
    15
100
AcDbLine
 10
43.7031423888
 20
54.2436933487
 30
0.0
 11
40.9331424348
 21
54.2436933487
 31
0.0
  0
CIRCLE
  5
BC
330
1F
100
AcDbEntity
  8
0
  6
Continuous
 62
     7
370
    15
100
AcDbCircle
 10
40.6430393438
 20
51.635030053
 30
0.0
 40
0.0825000000000244
  0
CIRCLE
  5
BD
330
1F
100
AcDbEntity
  8
0
  6
Continuous
 62
     7
370
    15
100
AcDbCircle
 10
43.9932454954
 20
51.635030053
 30
0.0
 40
0.0825000000000244
  0
LINE
  5
BE
330
1F
100
AcDbEntity
  8
0
  6
Continuous
 62
     7
370
    15
100
AcDbLine
 10
44.2581423708
 20
51.5186932148
 30
0.0
 11
44.2581423708
 21
54.5536933809
 31
0.0
  0
LINE
  5
BF
330
1F
100
AcDbEntity
  8
0
  6
Continuous
 62
     7
370
    15
100
AcDbLine
 10
40.3781423795
 20
54.5536933809
 30
0.0
 11
40.3781423795
 21
51.5186932148
 31
0.0
  0
ARC
  5
C0
330
1F
100
AcDbEntity
  8
0
  6
Continuous
 62
     7
370
    15
100
AcDbCircle
 10
40.5031424196
 20
51.5186933485
 30
0.0
 40
0.125
100
AcDbArc
 50
180.0
 51
269.9999999996
  0
LINE
  5
C1
330
1F
100
AcDbEntity
  8
0
  6
Continuous
 62
     7
370
    15
100
AcDbLine
 10
43.1931424104
 20
52.2286933595
 30
0.0
 11
41.4431424499
 21
52.2286933595
 31
0.0
  0
LINE
  5
C2
330
1F
100
AcDbEntity
  8
0
  6
Continuous
 62
     7
370
    15
100
AcDbLine
 10
41.4431424499
 20
52.7786934592
 30
0.0
 11
43.1931424104
 21
52.7786934592
 31
0.0
  0
LINE
  5
C3
330
1F
100
AcDbEntity
  8
0
  6
Continuous
 62
     7
370
    15
100
AcDbLine
 10
43.1931424104
 20
52.7786934592
 30
0.0
 11
43.1931424104
 21
52.2286933595
 31
0.0
  0
LINE
  5
C4
330
1F
100
AcDbEntity
  8
0
  6
Continuous
 62
     7
370
    15
100
AcDbLine
 10
41.4431424499
 20
52.2286933595
 30
0.0
 11
41.4431424499
 21
52.7786934592
 31
0.0
  0
LINE
  5
C5
330
1F
100
AcDbEntity
  8
0
  6
Continuous
 62
     7
370
    15
100
AcDbLine
 10
53.815245713
 20
47.0878165073
 30
0.0
 11
53.0852460393
 21
47.0878165073
 31
0.0
  0
LINE
  5
C6
330
1F
100
AcDbEntity
  8
0
  6
Continuous
 62
     7
370
    15
100
AcDbLine
 10
53.815245713
 20
43.130030548
 30
0.0
 11
53.0852460393
 21
43.130030548
 31
0.0
  0
LINE
  5
C7
330
1F
100
AcDbEntity
  8
0
  6
Continuous
 62
     7
370
    15
100
AcDbLine
 10
53.815245713
 20
47.0878165073
 30
0.0
 11
53.815245713
 21
43.130030548
 31
0.0
  0
LINE
  5
C8
330
1F
100
AcDbEntity
  8
0
  6
Continuous
 62
     7
370
    15
100
AcDbLine
 10
53.0852460393
 20
47.0878165073
 30
0.0
 11
53.0852460393
 21
43.130030548
 31
0.0
  0
LINE
  5
C9
330
1F
100
AcDbEntity
  8
0
  6
Continuous
 62
     7
370
    15
100
AcDbLine
 10
53.0852460393
 20
58.9260299379
 30
0.0
 11
53.815245713
 21
58.9260299379
 31
0.0
  0
LINE
  5
CA
330
1F
100
AcDbEntity
  8
0
  6
Continuous
 62
     7
370
    15
100
AcDbLine
 10
53.815245713
 20
58.9260299379
 30
0.0
 11
53.815245713
 21
47.0878165073
 31
0.0
  0
LINE
  5
CB
330
1F
100
AcDbEntity
  8
0
  6
Continuous
 62
     7
370
    15
100
AcDbLine
 10
53.0852460393
 20
58.9260299379
 30
0.0
 11
53.0852460393
 21
47.0878165073
 31
0.0
  0
LINE
  5
CC
330
1F
100
AcDbEntity
  8
0
  6
Continuous
 62
     7
370
    15
100
AcDbLine
 10
31.5512459486
 20
47.0878165073
 30
0.0
 11
30.8212451016
 21
47.0878165073
 31
0.0
  0
LINE
  5
CD
330
1F
100
AcDbEntity
  8
0
  6
Continuous
 62
     7
370
    15
100
AcDbLine
 10
31.5512459486
 20
43.130030548
 30
0.0
 11
30.8212451016
 21
43.130030548
 31
0.0
  0
LINE
  5
CE
330
1F
100
AcDbEntity
  8
0
  6
Continuous
 62
     7
370
    15
100
AcDbLine
 10
30.8212451016
 20
47.0878165073
 30
0.0
 11
30.8212451016
 21
43.130030548
 31
0.0
  0
LINE
  5
CF
330
1F
100
AcDbEntity
  8
0
  6
Continuous
 62
     7
370
    15
100
AcDbLine
 10
31.5512459486
 20
47.0878165073
 30
0.0
 11
31.5512459486
 21
43.130030548
 31
0.0
  0
LINE
  5
D0
330
1F
100
AcDbEntity
  8
0
  6
Continuous
 62
     7
370
    15
100
AcDbLine
 10
30.8212451016
 20
58.9260299379
 30
0.0
 11
31.5512459486
 21
58.9260299379
 31
0.0
  0
LINE
  5
D1
330
1F
100
AcDbEntity
  8
0
  6
Continuous
 62
     7
370
    15
100
AcDbLine
 10
30.8212451016
 20
58.9260299379
 30
0.0
 11
30.8212451016
 21
47.0878165073
 31
0.0
  0
LINE
  5
D2
330
1F
100
AcDbEntity
  8
0
  6
Continuous
 62
     7
370
    15
100
AcDbLine
 10
31.5512459486
 20
58.9260299379
 30
0.0
 11
31.5512459486
 21
47.0878165073
 31
0.0
  0
LINE
  5
D3
330
1F
100
AcDbEntity
  8
0
  6
Continuous
 62
     7
370
    15
100
AcDbLine
 10
31.5512459486
 20
43.1870327695
 30
0.0
 11
53.0852460393
 21
43.1870327695
 31
0.0
  0
LINE
  5
D4
330
1F
100
AcDbEntity
  8
0
  6
Continuous
 62
     7
370
    15
100
AcDbLine
 10
31.5512459486
 20
46.8320298622
 30
0.0
 11
53.0852460393
 21
46.8320298622
 31
0.0
  0
LINE
  5
D5
330
1F
100
AcDbEntity
  8
0
  6
Continuous
 62
     7
370
    15
100
AcDbLine
 10
31.5512459486
 20
47.1066852494
 30
0.0
 11
53.0852460393
 21
47.1066852494
 31
0.0
  0
LINE
  5
D6
330
1F
100
AcDbEntity
  8
0
  6
Continuous
 62
     7
370
    15
100
AcDbLine
 10
31.5512459486
 20
58.9260299379
 30
0.0
 11
53.0852460393
 21
58.9260299379
 31
0.0
  0
ARC
  5
D7
330
1F
100
AcDbEntity
  8
0
  6
Continuous
 62
     7
370
    15
100
AcDbCircle
 10
44.0582454954
 20
51.593530053
 30
0.0
 40
0.25
100
AcDbArc
 50
270.0
 51
0.0
  0
LINE
  5
D8
330
1F
100
AcDbEntity
  8
0
  6
Continuous
 62
     7
370
    15
100
AcDbLine
 10
44.308245472
 20
54.4785300758
 30
0.0
 11
44.308245472
 21
51.5935301903
 31
0.0
  0
ARC
  5
D9
330
1F
100
AcDbEntity
  8
0
  6
Continuous
 62
     7
370
    15
100
AcDbCircle
 10
44.0582454954
 20
54.478530053
 30
0.0
 40
0.25
100
AcDbArc
 50
0.0
 51
90.0
  0
LINE
  5
DA
330
1F
100
AcDbEntity
  8
0
  6
Continuous
 62
     7
370
    15
100
AcDbLine
 10
40.5782454679
 20
54.7285300545
 30
0.0
 11
44.0582454933
 21
54.7285300545
 31
0.0
  0
ARC
  5
DB
330
1F
100
AcDbEntity
  8
0
  6
Continuous
 62
     7
370
    15
100
AcDbCircle
 10
40.5782454954
 20
54.478530053
 30
0.0
 40
0.2499999999999929
100
AcDbArc
 50
90.0
 51
180.0
  0
LINE
  5
DC
330
1F
100
AcDbEntity
  8
0
  6
Continuous
 62
     7
370
    15
100
AcDbLine
 10
40.3282454893
 20
54.4785300758
 30
0.0
 11
40.3282454893
 21
51.5935301903
 31
0.0
  0
ARC
  5
DD
330
1F
100
AcDbEntity
  8
0
  6
Continuous
 62
     7
370
    15
100
AcDbCircle
 10
40.5782454954
 20
51.593530053
 30
0.0
 40
0.2499999999999929
100
AcDbArc
 50
180.0
 51
270.0
  0
LINE
  5
DE
330
1F
100
AcDbEntity
  8
0
  6
Continuous
 62
     7
370
    15
100
AcDbLine
 10
40.5782454679
 20
51.343530065
 30
0.0
 11
44.0582454933
 21
51.343530065
 31
0.0
  0
CIRCLE
  5
DF
330
1F
100
AcDbEntity
  8
0
  6
Continuous
 62
     7
370
    15
100
AcDbCircle
 10
52.0694974639
 20
54.5858497837
 30
0.0
 40
0.4765000000000015
  0
CIRCLE
  5
E0
330
1F
100
AcDbEntity
  8
0
  6
Continuous
 62
     7
370
    15
100
AcDbCircle
 10
32.5669935269
 20
54.5858497837
 30
0.0
 40
0.4765000000000015
  0
CIRCLE
  5
E1
330
1F
100
AcDbEntity
  8
0
  6
Continuous
 62
     7
370
    15
100
AcDbCircle
 10
43.9932454954
 20
54.437030053
 30
0.0
 40
0.0625
  0
CIRCLE
  5
E2
330
1F
100
AcDbEntity
  8
0
  6
Continuous
 62
     7
370
    15
100
AcDbCircle
 10
43.9932454954
 20
51.635030053
 30
0.0
 40
0.0625
  0
CIRCLE
  5
E3
330
1F
100
AcDbEntity
  8
0
  6
Continuous
 62
     7
370
    15
100
AcDbCircle
 10
40.6432454954
 20
51.635030053
 30
0.0
 40
0.0625
  0
CIRCLE
  5
E4
330
1F
100
AcDbEntity
  8
0
  6
Continuous
 62
     7
370
    15
100
AcDbCircle
 10
40.6432454954
 20
54.437030053
 30
0.0
 40
0.0625
  0
CIRCLE
  5
E5
330
1F
100
AcDbEntity
  8
0
  6
Continuous
 62
     7
370
    15
100
AcDbCircle
 10
32.5669935269
 20
54.5858497837
 30
0.0
 40
0.2187500000000071
  0
CIRCLE
  5
E6
330
1F
100
AcDbEntity
  8
0
  6
Continuous
 62
     7
370
    15
100
AcDbCircle
 10
52.0694974639
 20
54.5858497837
 30
0.0
 40
0.2187500000000071
  0
LINE
  5
E7
330
1F
100
AcDbEntity
  8
0
  6
Continuous
 62
     7
370
    15
100
AcDbLine
 10
9.8378527375
 20
63.1820575581
 30
0.0
 11
5.8800667781
 21
71.6695577498
 31
0.0
  0
LINE
  5
E8
330
1F
100
AcDbEntity
  8
0
  6
Continuous
 62
     7
370
    15
100
AcDbLine
 10
14.3375663564
 20
80.127057328
 30
0.0
 11
21.6760661681
 21
80.127057328
 31
0.0
  0
LINE
  5
E9
330
1F
100
AcDbEntity
  8
0
  6
Continuous
 62
     7
370
    15
100
AcDbLine
 10
21.6760661681
 20
63.1820575581
 30
0.0
 11
21.6760661681
 21
80.127057328
 31
0.0
  0
LINE
  5
EA
330
1F
100
AcDbEntity
  8
0
  6
Continuous
 62
     7
370
    15
100
AcDbLine
 10
21.6760661681
 20
63.1820575581
 30
0.0
 11
9.8378527375
 21
63.1820575581
 31
0.0
  0
CIRCLE
  5
EB
330
1F
100
AcDbEntity
  8
0
  6
Continuous
 62
     7
370
    15
100
AcDbCircle
 10
8.4197049424
 20
71.6497800875
 30
0.0
 40
0.4765000000000015
  0
CIRCLE
  5
EC
330
1F
100
AcDbEntity
  8
0
  6
Continuous
 62
     7
370
    15
100
AcDbCircle
 10
17.3358860138
 20
64.9888057823
 30
0.0
 40
0.4765000000000015
  0
CIRCLE
  5
ED
330
1F
100
AcDbEntity
  8
0
  6
Continuous
 62
     7
370
    15
100
AcDbCircle
 10
17.3358860138
 20
78.3203097193
 30
0.0
 40
0.4765000000000015
  0
LINE
  5
EE
330
1F
100
AcDbEntity
  8
0
  6
Continuous
 62
     7
370
    15
100
AcDbLine
 10
5.8800667781
 20
71.6695577498
 30
0.0
 11
14.3375663564
 21
80.127057328
 31
0.0
  0
CIRCLE
  5
EF
330
1F
100
AcDbEntity
  8
0
  6
Continuous
 62
     7
370
    15
100
AcDbCircle
 10
8.4197049424
 20
71.6497800875
 30
0.0
 40
0.21875
  0
CIRCLE
  5
F0
330
1F
100
AcDbEntity
  8
0
  6
Continuous
 62
     7
370
    15
100
AcDbCircle
 10
17.3358860138
 20
78.3203097193
 30
0.0
 40
0.21875
  0
CIRCLE
  5
F1
330
1F
100
AcDbEntity
  8
0
  6
Continuous
 62
     7
370
    15
100
AcDbCircle
 10
17.3358860138
 20
64.9888057823
 30
0.0
 40
0.2187500000000142
  0
CIRCLE
  5
F2
330
1F
100
AcDbEntity
  8
0
  6
Continuous
 62
     7
370
    15
100
AcDbCircle
 10
74.5874927775
 20
72.3896960336
 30
0.0
 40
0.4765000000000015
  0
CIRCLE
  5
F3
330
1F
100
AcDbEntity
  8
0
  6
Continuous
 62
     7
370
    15
100
AcDbCircle
 10
65.6713117061
 20
65.7287217284
 30
0.0
 40
0.4765000000000015
  0
CIRCLE
  5
F4
330
1F
100
AcDbEntity
  8
0
  6
Continuous
 62
     7
370
    15
100
AcDbCircle
 10
65.6713117061
 20
79.0602256654
 30
0.0
 40
0.4764999999999873
  0
LINE
  5
F5
330
1F
100
AcDbEntity
  8
0
  6
Continuous
 62
     7
370
    15
100
AcDbLine
 10
68.6696313635
 20
80.8669732741
 30
0.0
 11
61.3311315518
 21
80.8669732741
 31
0.0
  0
LINE
  5
F6
330
1F
100
AcDbEntity
  8
0
  6
Continuous
 62
     7
370
    15
100
AcDbLine
 10
77.1271309418
 20
72.4094736959
 30
0.0
 11
68.6696313635
 21
80.8669732741
 31
0.0
  0
LINE
  5
F7
330
1F
100
AcDbEntity
  8
0
  6
Continuous
 62
     7
370
    15
100
AcDbLine
 10
73.1693449825
 20
63.9219735042
 30
0.0
 11
77.1271309418
 21
72.4094736959
 31
0.0
  0
LINE
  5
F8
330
1F
100
AcDbEntity
  8
0
  6
Continuous
 62
     7
370
    15
100
AcDbLine
 10
61.3311315518
 20
63.9219735042
 30
0.0
 11
73.1693449825
 21
63.9219735042
 31
0.0
  0
LINE
  5
F9
330
1F
100
AcDbEntity
  8
0
  6
Continuous
 62
     7
370
    15
100
AcDbLine
 10
61.3311315518
 20
80.8669732741
 30
0.0
 11
61.3311315518
 21
63.9219735042
 31
0.0
  0
CIRCLE
  5
FA
330
1F
100
AcDbEntity
  8
0
  6
Continuous
 62
     7
370
    15
100
AcDbCircle
 10
74.5874927775
 20
72.3896960336
 30
0.0
 40
0.2187500000000142
  0
CIRCLE
  5
FB
330
1F
100
AcDbEntity
  8
0
  6
Continuous
 62
     7
370
    15
100
AcDbCircle
 10
65.6713117061
 20
65.7287217284
 30
0.0
 40
0.21875
  0
CIRCLE
  5
FC
330
1F
100
AcDbEntity
  8
0
  6
Continuous
 62
     7
370
    15
100
AcDbCircle
 10
65.6713117061
 20
79.0602256654
 30
0.0
 40
0.2187499999999858
  0
LINE
  5
FD
330
1F
100
AcDbEntity
  8
0
  6
Continuous
 62
     7
370
    15
100
AcDbLine
 10
53.0802570651
 20
145.8654280706
 30
0.0
 11
52.3502573914
 21
145.8654280706
 31
0.0
  0
LINE
  5
FE
330
1F
100
AcDbEntity
  8
0
  6
Continuous
 62
     7
370
    15
100
AcDbLine
 10
53.0802570651
 20
145.8654280706
 30
0.0
 11
53.0802570651
 21
137.3779278789
 31
0.0
  0
LINE
  5
FF
330
1F
100
AcDbEntity
  8
0
  6
Continuous
 62
     7
370
    15
100
AcDbLine
 10
53.0802570651
 20
137.3779278789
 30
0.0
 11
52.3502573914
 21
137.3779278789
 31
0.0
  0
LINE
  5
100
330
1F
100
AcDbEntity
  8
0
  6
Continuous
 62
     7
370
    15
100
AcDbLine
 10
52.3502573914
 20
145.8654280706
 30
0.0
 11
52.3502573914
 21
137.3779278789
 31
0.0
  0
LINE
  5
101
330
1F
100
AcDbEntity
  8
0
  6
Continuous
 62
     7
370
    15
100
AcDbLine
 10
53.0802570651
 20
137.3779278789
 30
0.0
 11
53.0802570651
 21
128.9204283007
 31
0.0
  0
LINE
  5
102
330
1F
100
AcDbEntity
  8
0
  6
Continuous
 62
     7
370
    15
100
AcDbLine
 10
53.0802570651
 20
128.9204283007
 30
0.0
 11
52.3502573914
 21
128.9204283007
 31
0.0
  0
LINE
  5
103
330
1F
100
AcDbEntity
  8
0
  6
Continuous
 62
     7
370
    15
100
AcDbLine
 10
52.3502573914
 20
137.3779278789
 30
0.0
 11
52.3502573914
 21
128.9204283007
 31
0.0
  0
LINE
  5
104
330
1F
100
AcDbEntity
  8
0
  6
Continuous
 62
     7
370
    15
100
AcDbLine
 10
30.8162573007
 20
145.8654280706
 30
0.0
 11
30.0862564537
 21
145.8654280706
 31
0.0
  0
LINE
  5
105
330
1F
100
AcDbEntity
  8
0
  6
Continuous
 62
     7
370
    15
100
AcDbLine
 10
30.8162573007
 20
137.3779278789
 30
0.0
 11
30.0862564537
 21
137.3779278789
 31
0.0
  0
LINE
  5
106
330
1F
100
AcDbEntity
  8
0
  6
Continuous
 62
     7
370
    15
100
AcDbLine
 10
30.0862564537
 20
145.8654280706
 30
0.0
 11
30.0862564537
 21
137.3779278789
 31
0.0
  0
LINE
  5
107
330
1F
100
AcDbEntity
  8
0
  6
Continuous
 62
     7
370
    15
100
AcDbLine
 10
30.8162573007
 20
145.8654280706
 30
0.0
 11
30.8162573007
 21
137.3779278789
 31
0.0
  0
LINE
  5
108
330
1F
100
AcDbEntity
  8
0
  6
Continuous
 62
     7
370
    15
100
AcDbLine
 10
30.8162573007
 20
128.9204283007
 30
0.0
 11
30.0862564537
 21
128.9204283007
 31
0.0
  0
LINE
  5
109
330
1F
100
AcDbEntity
  8
0
  6
Continuous
 62
     7
370
    15
100
AcDbLine
 10
30.0862564537
 20
137.3779278789
 30
0.0
 11
30.0862564537
 21
128.9204283007
 31
0.0
  0
LINE
  5
10A
330
1F
100
AcDbEntity
  8
0
  6
Continuous
 62
     7
370
    15
100
AcDbLine
 10
30.8162573007
 20
137.3779278789
 30
0.0
 11
30.8162573007
 21
128.9204283007
 31
0.0
  0
LINE
  5
10B
330
1F
100
AcDbEntity
  8
0
  6
Continuous
 62
     7
370
    15
100
AcDbLine
 10
30.8162573007
 20
128.9814280227
 30
0.0
 11
52.3502573914
 21
128.9814280227
 31
0.0
  0
LINE
  5
10C
330
1F
100
AcDbEntity
  8
0
  6
Continuous
 62
     7
370
    15
100
AcDbLine
 10
30.8162573007
 20
129.5704275118
 30
0.0
 11
52.3502573914
 21
129.5704275118
 31
0.0
  0
LINE
  5
10D
330
1F
100
AcDbEntity
  8
0
  6
Continuous
 62
     7
370
    15
100
AcDbLine
 10
30.8162573007
 20
129.5755220663
 30
0.0
 11
52.3502573914
 21
129.5755220663
 31
0.0
  0
LWPOLYLINE
  5
10E
330
1F
100
AcDbEntity
  8
0
  6
Continuous
 62
     7
370
    15
100
AcDbPolyline
 90
       37
 70
   128
 43
0.0
 10
31.8320049267
 20
135.8263388963
 10
31.9147486108
 20
135.8314577972
 10
31.9949778707
 20
135.8466587416
 10
32.0702545477
 20
135.8714797349
 10
32.1382930151
 20
135.905166919
 10
32.19702471
 20
135.946696866
 10
32.2446661863
 20
135.9948070835
 10
32.2797683941
 20
136.0480362019
 10
32.3012659591
 20
136.1047667999
 10
32.3085053421
 20
136.1632752707
 10
32.3012659591
 20
136.2217837415
 10
32.2797683941
 20
136.2785143394
 10
32.2446661863
 20
136.3317434579
 10
32.19702471
 20
136.3798536754
 10
32.1382930151
 20
136.4213836223
 10
32.0702545477
 20
136.4550708065
 10
31.9949778707
 20
136.4798917998
 10
31.9147486108
 20
136.4950927442
 10
31.8320049267
 20
136.500211645
 10
31.7492612426
 20
136.4950927442
 10
31.6690319827
 20
136.4798917998
 10
31.5937553056
 20
136.4550708065
 10
31.5257168383
 20
136.4213836223
 10
31.4669851434
 20
136.3798536754
 10
31.4193436671
 20
136.3317434579
 10
31.3842414593
 20
136.2785143394
 10
31.3627438943
 20
136.2217837415
 10
31.3555045113
 20
136.1632752707
 10
31.3627438943
 20
136.1047667999
 10
31.3842414593
 20
136.0480362019
 10
31.4193436671
 20
135.9948070835
 10
31.4669851434
 20
135.946696866
 10
31.5257168383
 20
135.905166919
 10
31.5937553056
 20
135.8714797349
 10
31.6690319827
 20
135.8466587416
 10
31.7492612426
 20
135.8314577972
 10
31.8320049267
 20
135.8263388963
  0
LWPOLYLINE
  5
10F
330
1F
100
AcDbEntity
  8
0
  6
Continuous
 62
     7
370
    15
100
AcDbPolyline
 90
       37
 70
   128
 43
0.0
 10
51.3345085921
 20
135.8263388963
 10
51.4172522762
 20
135.8314577972
 10
51.4974815361
 20
135.8466587416
 10
51.5727587998
 20
135.8714797349
 10
51.6407972672
 20
135.905166919
 10
51.699528962
 20
135.946696866
 10
51.7471698517
 20
135.9948070835
 10
51.7822720595
 20
136.0480362019
 10
51.8037696245
 20
136.1047667999
 10
51.8110090075
 20
136.1632752707
 10
51.8037696245
 20
136.2217837415
 10
51.7822720595
 20
136.2785143394
 10
51.7471698517
 20
136.3317434579
 10
51.699528962
 20
136.3798536754
 10
51.6407972672
 20
136.4213836223
 10
51.5727587998
 20
136.4550708065
 10
51.4974815361
 20
136.4798917998
 10
51.4172522762
 20
136.4950927442
 10
51.3345085921
 20
136.500211645
 10
51.2517654946
 20
136.4950927442
 10
51.1715362348
 20
136.4798917998
 10
51.0962589711
 20
136.4550708065
 10
51.0282205037
 20
136.4213836223
 10
50.9694888088
 20
136.3798536754
 10
50.9218479192
 20
136.3317434579
 10
50.8867451247
 20
136.2785143394
 10
50.8652481464
 20
136.2217837415
 10
50.8580087633
 20
136.1632752707
 10
50.8652481464
 20
136.1047667999
 10
50.8867451247
 20
136.0480362019
 10
50.9218479192
 20
135.9948070835
 10
50.9694888088
 20
135.946696866
 10
51.0282205037
 20
135.905166919
 10
51.0962589711
 20
135.8714797349
 10
51.1715362348
 20
135.8466587416
 10
51.2517654946
 20
135.8314577972
 10
51.3345085921
 20
135.8263388963
  0
LWPOLYLINE
  5
110
330
1F
100
AcDbEntity
  8
0
  6
Continuous
 62
     7
370
    15
100
AcDbPolyline
 90
        9
 70
   128
 43
0.0
 10
31.8320049267
 20
136.0526130291
 10
31.9147486108
 20
136.0577319299
 10
31.9949778707
 20
136.0729328743
 10
32.0702545477
 20
136.0977538676
 10
32.1382930151
 20
136.1314410518
 10
32.19702471
 20
136.1729709987
 10
32.2446661863
 20
136.2210812162
 10
32.2797683941
 20
136.2743103347
 10
32.280839635
 20
136.2764123371
  0
LWPOLYLINE
  5
111
330
1F
100
AcDbEntity
  8
0
  6
Continuous
 62
     7
370
    15
100
AcDbPolyline
 90
        9
 70
   128
 43
0.0
 10
31.3831702183
 20
136.2764123371
 10
31.3842414593
 20
136.2743103347
 10
31.4193436671
 20
136.2210812162
 10
31.4669851434
 20
136.1729709987
 10
31.5257168383
 20
136.1314410518
 10
31.5937553056
 20
136.0977538676
 10
31.6690319827
 20
136.0729328743
 10
31.7492612426
 20
136.0577319299
 10
31.8320049267
 20
136.0526130291
  0
LWPOLYLINE
  5
112
330
1F
100
AcDbEntity
  8
0
  6
Continuous
 62
     7
370
    15
100
AcDbPolyline
 90
        9
 70
   128
 43
0.0
 10
51.3345085921
 20
136.0526130291
 10
51.4172522762
 20
136.0577319299
 10
51.4974815361
 20
136.0729328743
 10
51.5727587998
 20
136.0977538676
 10
51.6407972672
 20
136.1314410518
 10
51.699528962
 20
136.1729709987
 10
51.7471698517
 20
136.2210812162
 10
51.7822720595
 20
136.2743103347
 10
51.7833433005
 20
136.2764123371
  0
LWPOLYLINE
  5
113
330
1F
100
AcDbEntity
  8
0
  6
Continuous
 62
     7
370
    15
100
AcDbPolyline
 90
        9
 70
   128
 43
0.0
 10
50.8856744704
 20
136.2764123371
 10
50.8867451247
 20
136.2743103347
 10
50.9218479192
 20
136.2210812162
 10
50.9694888088
 20
136.1729709987
 10
51.0282205037
 20
136.1314410518
 10
51.0962589711
 20
136.0977538676
 10
51.1715362348
 20
136.0729328743
 10
51.2517654946
 20
136.0577319299
 10
51.3345085921
 20
136.0526130291
  0
LWPOLYLINE
  5
114
330
1F
100
AcDbEntity
  8
0
  6
Continuous
 62
     7
370
    15
100
AcDbPolyline
 90
       10
 70
   128
 43
0.0
 10
31.8320049267
 20
136.234869777
 10
31.7753887274
 20
136.2401403294
 10
31.7226304035
 20
136.2555929509
 10
31.6773250069
 20
136.2801742936
 10
31.6425618885
 20
136.3122097369
 10
31.6207088076
 20
136.3495154392
 10
31.613254707
 20
136.3895494034
 10
31.6207088076
 20
136.4295833676
 10
31.6425618885
 20
136.4668893633
 10
31.6491078395
 20
136.4744030099
  0
LWPOLYLINE
  5
115
330
1F
100
AcDbEntity
  8
0
  6
Continuous
 62
     7
370
    15
100
AcDbPolyline
 90
       10
 70
   128
 43
0.0
 10
32.0149020138
 20
136.4744030099
 10
32.0214479649
 20
136.4668893633
 10
32.0433010458
 20
136.4295833676
 10
32.0507551463
 20
136.3895494034
 10
32.0433010458
 20
136.3495154392
 10
32.0214479649
 20
136.3122097369
 10
31.9866848465
 20
136.2801742936
 10
31.9413794499
 20
136.2555929509
 10
31.888621126
 20
136.2401403294
 10
31.8320049267
 20
136.234869777
  0
LWPOLYLINE
  5
116
330
1F
100
AcDbEntity
  8
0
  6
Continuous
 62
     7
370
    15
100
AcDbPolyline
 90
       10
 70
   128
 43
0.0
 10
51.3345085921
 20
136.234869777
 10
51.2778923928
 20
136.2401403294
 10
51.2251340689
 20
136.2555929509
 10
51.179829259
 20
136.2801742936
 10
51.1450655539
 20
136.3122097369
 10
51.123212473
 20
136.3495154392
 10
51.1157589591
 20
136.3895494034
 10
51.123212473
 20
136.4295833676
 10
51.1450655539
 20
136.4668893633
 10
51.1516120916
 20
136.4744030099
  0
LWPOLYLINE
  5
117
330
1F
100
AcDbEntity
  8
0
  6
Continuous
 62
     7
370
    15
100
AcDbPolyline
 90
       10
 70
   128
 43
0.0
 10
51.5174056793
 20
136.4744030099
 10
51.5239516303
 20
136.4668893633
 10
51.5458052979
 20
136.4295833676
 10
51.5532588118
 20
136.3895494034
 10
51.5458052979
 20
136.3495154392
 10
51.5239516303
 20
136.3122097369
 10
51.4891885119
 20
136.2801742936
 10
51.4438837019
 20
136.2555929509
 10
51.3911253781
 20
136.2401403294
 10
51.3345085921
 20
136.234869777
  0
LINE
  5
118
330
1F
100
AcDbEntity
  8
0
  6
Continuous
 62
     7
370
    15
100
AcDbLine
 10
30.8162573007
 20
136.9007331515
 30
0.0
 11
52.3502573914
 21
136.9007331515
 31
0.0
  0
LINE
  5
119
330
1F
100
AcDbEntity
  8
0
  6
Continuous
 62
     7
370
    15
100
AcDbLine
 10
30.8162573007
 20
137.3439482448
 30
0.0
 11
52.3502573914
 21
137.3439482448
 31
0.0
  0
LINE
  5
11A
330
1F
100
AcDbEntity
  8
0
  6
Continuous
 62
     7
370
    15
100
AcDbLine
 10
30.8162573007
 20
145.2154276861
 30
0.0
 11
52.3502573914
 21
145.2154276861
 31
0.0
  0
LINE
  5
11B
330
1F
100
AcDbEntity
  8
0
  6
Continuous
 62
     7
370
    15
100
AcDbLine
 10
30.8162573007
 20
145.8044277619
 30
0.0
 11
52.3502573914
 21
145.8044277619
 31
0.0
  0
LINE
  5
11C
330
1F
100
AcDbEntity
  8
0
  6
Continuous
 62
     7
370
    15
100
AcDbLine
 10
53.2555867593
 20
121.9607753959
 30
0.0
 11
52.5255870856
 21
121.9607753959
 31
0.0
  0
LINE
  5
11D
330
1F
100
AcDbEntity
  8
0
  6
Continuous
 62
     7
370
    15
100
AcDbLine
 10
53.2555867593
 20
121.9607753959
 30
0.0
 11
53.2555867593
 21
110.0000647886
 31
0.0
  0
LINE
  5
11E
330
1F
100
AcDbEntity
  8
0
  6
Continuous
 62
     7
370
    15
100
AcDbLine
 10
53.2555867593
 20
110.0000647886
 30
0.0
 11
52.5255870856
 21
110.0000647886
 31
0.0
  0
LINE
  5
11F
330
1F
100
AcDbEntity
  8
0
  6
Continuous
 62
     7
370
    15
100
AcDbLine
 10
52.5255870856
 20
121.9607753959
 30
0.0
 11
52.5255870856
 21
110.0000647886
 31
0.0
  0
LINE
  5
120
330
1F
100
AcDbEntity
  8
0
  6
Continuous
 62
     7
370
    15
100
AcDbLine
 10
53.2555867593
 20
104.810961808
 30
0.0
 11
52.5255870856
 21
104.810961808
 31
0.0
  0
LINE
  5
121
330
1F
100
AcDbEntity
  8
0
  6
Continuous
 62
     7
370
    15
100
AcDbLine
 10
53.2555867593
 20
110.0000647886
 30
0.0
 11
53.2555867593
 21
104.810961808
 31
0.0
  0
LINE
  5
122
330
1F
100
AcDbEntity
  8
0
  6
Continuous
 62
     7
370
    15
100
AcDbLine
 10
52.5255870856
 20
110.0000647886
 30
0.0
 11
52.5255870856
 21
104.810961808
 31
0.0
  0
LINE
  5
123
330
1F
100
AcDbEntity
  8
0
  6
Continuous
 62
     7
370
    15
100
AcDbLine
 10
53.2555867593
 20
125.1637670464
 30
0.0
 11
52.5255870856
 21
125.1637670464
 31
0.0
  0
LINE
  5
124
330
1F
100
AcDbEntity
  8
0
  6
Continuous
 62
     7
370
    15
100
AcDbLine
 10
53.2555867593
 20
125.1637670464
 30
0.0
 11
53.2555867593
 21
121.9607753959
 31
0.0
  0
LINE
  5
125
330
1F
100
AcDbEntity
  8
0
  6
Continuous
 62
     7
370
    15
100
AcDbLine
 10
52.5255870856
 20
125.1637670464
 30
0.0
 11
52.5255870856
 21
121.9607753959
 31
0.0
  0
LINE
  5
126
330
1F
100
AcDbEntity
  8
0
  6
Continuous
 62
     7
370
    15
100
AcDbLine
 10
30.9915869949
 20
121.9607753959
 30
0.0
 11
30.2615861479
 21
121.9607753959
 31
0.0
  0
LINE
  5
127
330
1F
100
AcDbEntity
  8
0
  6
Continuous
 62
     7
370
    15
100
AcDbLine
 10
30.9915869949
 20
121.9607753959
 30
0.0
 11
30.9915869949
 21
110.0000647886
 31
0.0
  0
LINE
  5
128
330
1F
100
AcDbEntity
  8
0
  6
Continuous
 62
     7
370
    15
100
AcDbLine
 10
30.9915869949
 20
110.0000647886
 30
0.0
 11
30.2615861479
 21
110.0000647886
 31
0.0
  0
LINE
  5
129
330
1F
100
AcDbEntity
  8
0
  6
Continuous
 62
     7
370
    15
100
AcDbLine
 10
30.2615861479
 20
121.9607753959
 30
0.0
 11
30.2615861479
 21
110.0000647886
 31
0.0
  0
LINE
  5
12A
330
1F
100
AcDbEntity
  8
0
  6
Continuous
 62
     7
370
    15
100
AcDbLine
 10
30.9915869949
 20
104.810961808
 30
0.0
 11
30.2615861479
 21
104.810961808
 31
0.0
  0
LINE
  5
12B
330
1F
100
AcDbEntity
  8
0
  6
Continuous
 62
     7
370
    15
100
AcDbLine
 10
30.2615861479
 20
110.0000647886
 30
0.0
 11
30.2615861479
 21
104.810961808
 31
0.0
  0
LINE
  5
12C
330
1F
100
AcDbEntity
  8
0
  6
Continuous
 62
     7
370
    15
100
AcDbLine
 10
30.9915869949
 20
110.0000647886
 30
0.0
 11
30.9915869949
 21
104.810961808
 31
0.0
  0
LINE
  5
12D
330
1F
100
AcDbEntity
  8
0
  6
Continuous
 62
     7
370
    15
100
AcDbLine
 10
30.9915869949
 20
125.1637670464
 30
0.0
 11
30.2615861479
 21
125.1637670464
 31
0.0
  0
LINE
  5
12E
330
1F
100
AcDbEntity
  8
0
  6
Continuous
 62
     7
370
    15
100
AcDbLine
 10
30.2615861479
 20
125.1637670464
 30
0.0
 11
30.2615861479
 21
121.9607753959
 31
0.0
  0
LINE
  5
12F
330
1F
100
AcDbEntity
  8
0
  6
Continuous
 62
     7
370
    15
100
AcDbLine
 10
30.9915869949
 20
125.1637670464
 30
0.0
 11
30.9915869949
 21
121.9607753959
 31
0.0
  0
LINE
  5
130
330
1F
100
AcDbEntity
  8
0
  6
Continuous
 62
     7
370
    15
100
AcDbLine
 10
30.9915869949
 20
110.0393090633
 30
0.0
 11
52.5255870856
 21
110.0393090633
 31
0.0
  0
LINE
  5
131
330
1F
100
AcDbEntity
  8
0
  6
Continuous
 62
     7
370
    15
100
AcDbLine
 10
30.9915869949
 20
110.8722805439
 30
0.0
 11
52.5255870856
 21
110.8722805439
 31
0.0
  0
LINE
  5
132
330
1F
100
AcDbEntity
  8
0
  6
Continuous
 62
     7
370
    15
100
AcDbLine
 10
30.9915869949
 20
104.8544485612
 30
0.0
 11
52.5255870856
 21
104.8544485612
 31
0.0
  0
LWPOLYLINE
  5
133
330
1F
100
AcDbEntity
  8
0
  6
Continuous
 62
     7
370
    15
100
AcDbPolyline
 90
       37
 70
   128
 43
0.0
 10
32.0017742585
 20
107.5861295522
 10
32.0845179426
 20
107.5912483616
 10
32.1647472025
 20
107.6064493319
 10
32.2400238795
 20
107.6312704967
 10
32.3080623469
 20
107.6649576928
 10
32.3667940417
 20
107.7064874281
 10
32.414435518
 20
107.7545977342
 10
32.4495377259
 20
107.8078269015
 10
32.4710352909
 20
107.8645575033
 10
32.4782746739
 20
107.9230659161
 10
32.4710352909
 20
107.9815743288
 10
32.4495377259
 20
108.0383049825
 10
32.414435518
 20
108.0915341499
 10
32.3667940417
 20
108.1396445078
 10
32.3080623469
 20
108.1811741912
 10
32.2400238795
 20
108.2148613874
 10
32.1647472025
 20
108.239682604
 10
32.0845179426
 20
108.2548834705
 10
32.0017742585
 20
108.2600022799
 10
31.9190305743
 20
108.2548834705
 10
31.8388013145
 20
108.239682604
 10
31.7635246374
 20
108.2148613874
 10
31.6954861701
 20
108.1811741912
 10
31.6367544752
 20
108.1396445078
 10
31.5891129989
 20
108.0915341499
 10
31.5540107911
 20
108.0383049825
 10
31.5325132261
 20
107.9815743288
 10
31.5252738431
 20
107.9230659161
 10
31.5325132261
 20
107.8645575033
 10
31.5540107911
 20
107.8078269015
 10
31.5891129989
 20
107.7545977342
 10
31.6367544752
 20
107.7064874281
 10
31.6954861701
 20
107.6649576928
 10
31.7635246374
 20
107.6312704967
 10
31.8388013145
 20
107.6064493319
 10
31.9190305743
 20
107.5912483616
 10
32.0017742585
 20
107.5861295522
  0
LWPOLYLINE
  5
134
330
1F
100
AcDbEntity
  8
0
  6
Continuous
 62
     7
370
    15
100
AcDbPolyline
 90
       37
 70
   128
 43
0.0
 10
51.5098382863
 20
107.5861295522
 10
51.5925819705
 20
107.5912483616
 10
51.6728112303
 20
107.6064493319
 10
51.748088494
 20
107.6312704967
 10
51.8161269614
 20
107.6649576928
 10
51.8748586562
 20
107.7064874281
 10
51.9224995459
 20
107.7545977342
 10
51.9576017537
 20
107.8078269015
 10
51.9790993187
 20
107.8645575033
 10
51.9863387018
 20
107.9230659161
 10
51.9790993187
 20
107.9815743288
 10
51.9576017537
 20
108.0383049825
 10
51.9224995459
 20
108.0915341499
 10
51.8748586562
 20
108.1396445078
 10
51.8161269614
 20
108.1811741912
 10
51.748088494
 20
108.2148613874
 10
51.6728112303
 20
108.239682604
 10
51.5925819705
 20
108.2548834705
 10
51.5098382863
 20
108.2600022799
 10
51.4270951888
 20
108.2548834705
 10
51.346865929
 20
108.239682604
 10
51.2715886653
 20
108.2148613874
 10
51.2035501979
 20
108.1811741912
 10
51.1448185031
 20
108.1396445078
 10
51.0971776134
 20
108.0915341499
 10
51.0620748189
 20
108.0383049825
 10
51.0405778406
 20
107.9815743288
 10
51.0333384576
 20
107.9230659161
 10
51.0405778406
 20
107.8645575033
 10
51.0620748189
 20
107.8078269015
 10
51.0971776134
 20
107.7545977342
 10
51.1448185031
 20
107.7064874281
 10
51.2035501979
 20
107.6649576928
 10
51.2715886653
 20
107.6312704967
 10
51.346865929
 20
107.6064493319
 10
51.4270951888
 20
107.5912483616
 10
51.5098382863
 20
107.5861295522
  0
LWPOLYLINE
  5
135
330
1F
100
AcDbEntity
  8
0
  6
Continuous
 62
     7
370
    15
100
AcDbPolyline
 90
        9
 70
   128
 43
0.0
 10
32.0017742585
 20
107.812403371
 10
32.0845179426
 20
107.8175221804
 10
32.1647472025
 20
107.8327231507
 10
32.2400238795
 20
107.8575443155
 10
32.3080623469
 20
107.8912315116
 10
32.3667940417
 20
107.9327612469
 10
32.414435518
 20
107.9808715529
 10
32.4495377259
 20
108.0341007203
 10
32.4506089668
 20
108.0362026699
  0
LWPOLYLINE
  5
136
330
1F
100
AcDbEntity
  8
0
  6
Continuous
 62
     7
370
    15
100
AcDbPolyline
 90
        9
 70
   128
 43
0.0
 10
31.5529395501
 20
108.0362026699
 10
31.5540107911
 20
108.0341007203
 10
31.5891129989
 20
107.9808715529
 10
31.6367544752
 20
107.9327612469
 10
31.6954861701
 20
107.8912315116
 10
31.7635246374
 20
107.8575443155
 10
31.8388013145
 20
107.8327231507
 10
31.9190305743
 20
107.8175221804
 10
32.0017742585
 20
107.812403371
  0
LWPOLYLINE
  5
137
330
1F
100
AcDbEntity
  8
0
  6
Continuous
 62
     7
370
    15
100
AcDbPolyline
 90
        9
 70
   128
 43
0.0
 10
51.5098382863
 20
107.812403371
 10
51.5925819705
 20
107.8175221804
 10
51.6728112303
 20
107.8327231507
 10
51.748088494
 20
107.8575443155
 10
51.8161269614
 20
107.8912315116
 10
51.8748586562
 20
107.9327612469
 10
51.9224995459
 20
107.9808715529
 10
51.9576017537
 20
108.0341007203
 10
51.9586729947
 20
108.0362026699
  0
LWPOLYLINE
  5
138
330
1F
100
AcDbEntity
  8
0
  6
Continuous
 62
     7
370
    15
100
AcDbPolyline
 90
        9
 70
   128
 43
0.0
 10
51.0610041646
 20
108.0362026699
 10
51.0620748189
 20
108.0341007203
 10
51.0971776134
 20
107.9808715529
 10
51.1448185031
 20
107.9327612469
 10
51.2035501979
 20
107.8912315116
 10
51.2715886653
 20
107.8575443155
 10
51.346865929
 20
107.8327231507
 10
51.4270951888
 20
107.8175221804
 10
51.5098382863
 20
107.812403371
  0
LWPOLYLINE
  5
139
330
1F
100
AcDbEntity
  8
0
  6
Continuous
 62
     7
370
    15
100
AcDbPolyline
 90
       10
 70
   128
 43
0.0
 10
32.0073346209
 20
107.9946601786
 10
31.9507184216
 20
107.9999307125
 10
31.8979600977
 20
108.0153832779
 10
31.8526547011
 20
108.0399647739
 10
31.8178915827
 20
108.0719999567
 10
31.7960385018
 20
108.1093057253
 10
31.7885844013
 20
108.1493397349
 10
31.7960385018
 20
108.1893737444
 10
31.8178915827
 20
108.2266796167
 10
31.8265049232
 20
108.2363809625
  0
LWPOLYLINE
  5
13A
330
1F
100
AcDbEntity
  8
0
  6
Continuous
 62
     7
370
    15
100
AcDbPolyline
 90
       10
 70
   128
 43
0.0
 10
32.1923307772
 20
108.2318861629
 10
32.1967776591
 20
108.2266796167
 10
32.21863074
 20
108.1893737444
 10
32.2260848406
 20
108.1493397349
 10
32.21863074
 20
108.1093057253
 10
32.1967776591
 20
108.0719999567
 10
32.1620145407
 20
108.0399647739
 10
32.1167091441
 20
108.0153832779
 10
32.0639508202
 20
107.9999307125
 10
32.0073346209
 20
107.9946601786
  0
LWPOLYLINE
  5
13B
330
1F
100
AcDbEntity
  8
0
  6
Continuous
 62
     7
370
    15
100
AcDbPolyline
 90
       10
 70
   128
 43
0.0
 10
51.5098382863
 20
107.9946601786
 10
51.453222087
 20
107.9999307125
 10
51.4004637632
 20
108.0153832779
 10
51.3551589532
 20
108.0399647739
 10
51.3203952481
 20
108.0719999567
 10
51.2985421672
 20
108.1093057253
 10
51.2910886533
 20
108.1493397349
 10
51.2985421672
 20
108.1893737444
 10
51.3203952481
 20
108.2266796167
 10
51.3269417858
 20
108.2341933503
  0
LWPOLYLINE
  5
13C
330
1F
100
AcDbEntity
  8
0
  6
Continuous
 62
     7
370
    15
100
AcDbPolyline
 90
       10
 70
   128
 43
0.0
 10
51.6927353735
 20
108.2341933503
 10
51.6992813245
 20
108.2266796167
 10
51.7211349921
 20
108.1893737444
 10
51.728588506
 20
108.1493397349
 10
51.7211349921
 20
108.1093057253
 10
51.6992813245
 20
108.0719999567
 10
51.6645182061
 20
108.0399647739
 10
51.6192133961
 20
108.0153832779
 10
51.5664550723
 20
107.9999307125
 10
51.5098382863
 20
107.9946601786
  0
CIRCLE
  5
13D
330
1F
100
AcDbEntity
  8
0
  6
Continuous
 62
     7
370
    15
100
AcDbCircle
 10
51.5098385102
 20
120.1789649473
 30
0.0
 40
0.4765000000000015
  0
CIRCLE
  5
13E
330
1F
100
AcDbEntity
  8
0
  6
Continuous
 62
     7
370
    15
100
AcDbCircle
 10
32.0073345732
 20
120.1789649473
 30
0.0
 40
0.4764999999999731
  0
CIRCLE
  5
13F
330
1F
100
AcDbEntity
  8
0
  6
Continuous
 62
     7
370
    15
100
AcDbCircle
 10
51.5098385102
 20
120.1789649473
 30
0.0
 40
0.2187499999999858
  0
CIRCLE
  5
140
330
1F
100
AcDbEntity
  8
0
  6
Continuous
 62
     7
370
    15
100
AcDbCircle
 10
32.0073345732
 20
120.1789649473
 30
0.0
 40
0.2187499999999858
  0
LINE
  5
141
330
1F
100
AcDbEntity
  8
0
  6
Continuous
 62
     7
370
    15
100
AcDbLine
 10
30.9915869949
 20
121.269640298
 30
0.0
 11
52.5255870856
 21
121.269640298
 31
0.0
  0
LINE
  5
142
330
1F
100
AcDbEntity
  8
0
  6
Continuous
 62
     7
370
    15
100
AcDbLine
 10
30.9915869949
 20
121.8964415088
 30
0.0
 11
52.5255870856
 21
121.8964415088
 31
0.0
  0
LINE
  5
143
330
1F
100
AcDbEntity
  8
0
  6
Continuous
 62
     7
370
    15
100
AcDbLine
 10
30.9915869949
 20
124.8669603107
 30
0.0
 11
52.5255870856
 21
124.8669603107
 31
0.0
  0
LINE
  5
144
330
1F
100
AcDbEntity
  8
0
  6
Continuous
 62
     7
370
    15
100
AcDbLine
 10
30.9915869949
 20
124.8850158381
 30
0.0
 11
52.5255870856
 21
124.8850158381
 31
0.0
  0
LINE
  5
145
330
1F
100
AcDbEntity
  8
0
  6
Continuous
 62
     7
370
    15
100
AcDbLine
 10
30.9915869949
 20
125.1072910991
 30
0.0
 11
52.5255870856
 21
125.1072910991
 31
0.0
  0
LWPOLYLINE
  5
146
330
1F
100
AcDbEntity
  8
0
  6
Continuous
 62
     7
370
    15
100
AcDbPolyline
 90
       17
 70
   128
 43
0.0
 10
40.652483401
 20
35.5807173519
 10
40.6840546496
 20
35.5833714147
 10
40.7108196871
 20
35.5909294098
 10
40.7287034271
 20
35.6022407414
 10
40.7349833279
 20
35.6155833896
 10
40.7287034271
 20
35.6289260378
 10
40.7108196871
 20
35.6402373695
 10
40.6840546496
 20
35.6477953646
 10
40.652483401
 20
35.6504493654
 10
40.6209120057
 20
35.6477953646
 10
40.5941469682
 20
35.6402373695
 10
40.5762632281
 20
35.6289260378
 10
40.5699833273
 20
35.6155833896
 10
40.5762632281
 20
35.6022407414
 10
40.5941469682
 20
35.5909294098
 10
40.6209120057
 20
35.5833714147
 10
40.652483401
 20
35.5807173519
  0
LWPOLYLINE
  5
147
330
1F
100
AcDbEntity
  8
0
  6
Continuous
 62
     7
370
    15
100
AcDbPolyline
 90
       17
 70
   128
 43
0.0
 10
44.0026894724
 20
35.5807173519
 10
44.0342608677
 20
35.5833714147
 10
44.0610257585
 20
35.5909294098
 10
44.0789095719
 20
35.6022407414
 10
44.0851894727
 20
35.6155833896
 10
44.0789095719
 20
35.6289260378
 10
44.0610257585
 20
35.6402373695
 10
44.0342608677
 20
35.6477953646
 10
44.0026894724
 20
35.6504493654
 10
43.9711180771
 20
35.6477953646
 10
43.9443531863
 20
35.6402373695
 10
43.9264694463
 20
35.6289260378
 10
43.9201894721
 20
35.6155833896
 10
43.9264694463
 20
35.6022407414
 10
43.9443531863
 20
35.5909294098
 10
43.9711180771
 20
35.5833714147
 10
44.0026894724
 20
35.5807173519
  0
LWPOLYLINE
  5
148
330
1F
100
AcDbEntity
  8
0
  6
Continuous
 62
     7
370
    15
100
AcDbPolyline
 90
        9
 70
   128
 43
0.0
 10
40.5125862837
 20
35.7175766547
 10
40.4882000054
 20
35.7165616163
 10
40.4647509163
 20
35.7135554265
 10
40.443140126
 20
35.7086736841
 10
40.4241980515
 20
35.7021039506
 10
40.4086527377
 20
35.694098684
 10
40.3971014045
 20
35.6849655074
 10
40.3899881533
 20
35.6750554941
 10
40.3875863677
 20
35.6647494075
  0
LINE
  5
149
330
1F
100
AcDbEntity
  8
0
  6
Continuous
 62
     7
370
    15
100
AcDbLine
 10
44.142586443
 20
35.7175766547
 30
0.0
 11
40.5125862837
 21
35.7175766547
 31
0.0
  0
LWPOLYLINE
  5
14A
330
1F
100
AcDbEntity
  8
0
  6
Continuous
 62
     7
370
    15
100
AcDbPolyline
 90
        9
 70
   128
 43
0.0
 10
44.267586359
 20
35.6647494075
 10
44.2651845734
 20
35.6750554941
 10
44.2580713222
 20
35.6849655074
 10
44.2465201357
 20
35.694098684
 10
44.2309748219
 20
35.7021039506
 10
44.2120326741
 20
35.7086736841
 10
44.1904218104
 20
35.7135554265
 10
44.1669727213
 20
35.7165616163
 10
44.142586443
 20
35.7175766547
  0
LINE
  5
14B
330
1F
100
AcDbEntity
  8
0
  6
Continuous
 62
     7
370
    15
100
AcDbLine
 10
44.267586359
 20
34.382102913
 30
0.0
 11
44.267586359
 21
35.6647494075
 31
0.0
  0
LINE
  5
14C
330
1F
100
AcDbEntity
  8
0
  6
Continuous
 62
     7
370
    15
100
AcDbLine
 10
44.2670384186
 20
34.3771616046
 30
0.0
 11
44.267586359
 21
34.382102913
 31
0.0
  0
LINE
  5
14D
330
1F
100
AcDbEntity
  8
0
  6
Continuous
 62
     7
370
    15
100
AcDbLine
 10
40.3875863677
 20
34.382102913
 30
0.0
 11
40.3881055617
 21
34.3772930092
 31
0.0
  0
LINE
  5
14E
330
1F
100
AcDbEntity
  8
0
  6
Continuous
 62
     7
370
    15
100
AcDbLine
 10
40.3875863677
 20
35.6647494075
 30
0.0
 11
40.3875863677
 21
34.382102913
 31
0.0
  0
LWPOLYLINE
  5
14F
330
1F
100
AcDbEntity
  8
0
  6
Continuous
 62
     7
370
    15
100
AcDbPolyline
 90
        9
 70
   128
 43
0.0
 10
40.8175863603
 20
35.4809104236
 10
40.8199882926
 20
35.4912165721
 10
40.8271013971
 20
35.5011265854
 10
40.8386527303
 20
35.5102597001
 10
40.8541980441
 20
35.5182649667
 10
40.8731401186
 20
35.5248347001
 10
40.8947509089
 20
35.5297165045
 10
40.9182001447
 20
35.5327226943
 10
40.942586423
 20
35.5337377328
  0
LINE
  5
150
330
1F
100
AcDbEntity
  8
0
  6
Continuous
 62
     7
370
    15
100
AcDbLine
 10
40.8175863603
 20
34.5659418969
 30
0.0
 11
40.8175863603
 21
35.4809104236
 31
0.0
  0
LWPOLYLINE
  5
151
330
1F
100
AcDbEntity
  8
0
  6
Continuous
 62
     7
370
    15
100
AcDbPolyline
 90
        9
 70
   128
 43
0.0
 10
40.942586423
 20
34.5131146497
 10
40.9182001447
 20
34.5141296881
 10
40.8947509089
 20
34.517135878
 10
40.8731401186
 20
34.5220176823
 10
40.8541980441
 20
34.5285874158
 10
40.8386527303
 20
34.5365926824
 10
40.8271013971
 20
34.5457257971
 10
40.8199882926
 20
34.5556358104
 10
40.8175863603
 20
34.5659418969
  0
LINE
  5
152
330
1F
100
AcDbEntity
  8
0
  6
Continuous
 62
     7
370
    15
100
AcDbLine
 10
43.7125863771
 20
34.5131146497
 30
0.0
 11
40.942586423
 21
34.5131146497
 31
0.0
  0
LWPOLYLINE
  5
153
330
1F
100
AcDbEntity
  8
0
  6
Continuous
 62
     7
370
    15
100
AcDbPolyline
 90
        9
 70
   128
 43
0.0
 10
43.8375864397
 20
34.5659418969
 10
43.8351845808
 20
34.5556358104
 10
43.8280713296
 20
34.5457257971
 10
43.8165201431
 20
34.5365926824
 10
43.800974756
 20
34.5285874158
 10
43.7820326815
 20
34.5220176823
 10
43.7604218178
 20
34.517135878
 10
43.7369727287
 20
34.5141296881
 10
43.7125863771
 20
34.5131146497
  0
LINE
  5
154
330
1F
100
AcDbEntity
  8
0
  6
Continuous
 62
     7
370
    15
100
AcDbLine
 10
43.8375864397
 20
34.5659418969
 30
0.0
 11
43.8375864397
 21
35.4809104236
 31
0.0
  0
LWPOLYLINE
  5
155
330
1F
100
AcDbEntity
  8
0
  6
Continuous
 62
     7
370
    15
100
AcDbPolyline
 90
        9
 70
   128
 43
0.0
 10
43.7125863771
 20
35.5337377328
 10
43.7369727287
 20
35.5327226943
 10
43.7604218178
 20
35.5297165045
 10
43.7820326815
 20
35.5248347001
 10
43.800974756
 20
35.5182649667
 10
43.8165201431
 20
35.5102597001
 10
43.8280713296
 20
35.5011265854
 10
43.8351845808
 20
35.4912165721
 10
43.8375864397
 20
35.4809104236
  0
LINE
  5
156
330
1F
100
AcDbEntity
  8
0
  6
Continuous
 62
     7
370
    15
100
AcDbLine
 10
43.7125863771
 20
35.5337377328
 30
0.0
 11
40.942586423
 21
35.5337377328
 31
0.0
  0
LWPOLYLINE
  5
157
330
1F
100
AcDbEntity
  8
0
  6
Continuous
 62
     7
370
    15
100
AcDbPolyline
 90
       17
 70
   128
 43
0.0
 10
44.0026894724
 20
34.3964029551
 10
44.0342608677
 20
34.3990569559
 10
44.0610257585
 20
34.406614951
 10
44.0789095719
 20
34.4179262827
 10
44.0851894727
 20
34.4312689309
 10
44.0789095719
 20
34.4446115791
 10
44.0610257585
 20
34.4559230347
 10
44.0342608677
 20
34.4634810298
 10
44.0026894724
 20
34.4661350306
 10
43.9711180771
 20
34.4634810298
 10
43.9443531863
 20
34.4559230347
 10
43.9264694463
 20
34.4446115791
 10
43.9201894721
 20
34.4312689309
 10
43.9264694463
 20
34.4179262827
 10
43.9443531863
 20
34.406614951
 10
43.9711180771
 20
34.3990569559
 10
44.0026894724
 20
34.3964029551
  0
LWPOLYLINE
  5
158
330
1F
100
AcDbEntity
  8
0
  6
Continuous
 62
     7
370
    15
100
AcDbPolyline
 90
       17
 70
   128
 43
0.0
 10
40.652483401
 20
34.3964029551
 10
40.6840546496
 20
34.3990569559
 10
40.7108196871
 20
34.406614951
 10
40.7287034271
 20
34.4179262827
 10
40.7349833279
 20
34.4312689309
 10
40.7287034271
 20
34.4446115791
 10
40.7108196871
 20
34.4559230347
 10
40.6840546496
 20
34.4634810298
 10
40.652483401
 20
34.4661350306
 10
40.6209120057
 20
34.4634810298
 10
40.5941469682
 20
34.4559230347
 10
40.5762632281
 20
34.4446115791
 10
40.5699833273
 20
34.4312689309
 10
40.5762632281
 20
34.4179262827
 10
40.5941469682
 20
34.406614951
 10
40.6209120057
 20
34.3990569559
 10
40.652483401
 20
34.3964029551
  0
LINE
  5
159
330
1F
100
AcDbEntity
  8
0
  6
Continuous
 62
     7
370
    15
100
AcDbLine
 10
40.3875863677
 20
34.3775851054
 30
0.0
 11
40.3875863677
 21
34.382102913
 31
0.0
  0
LINE
  5
15A
330
1F
100
AcDbEntity
  8
0
  6
Continuous
 62
     7
370
    15
100
AcDbLine
 10
44.267586359
 20
34.382102913
 30
0.0
 11
44.267586359
 21
34.3774686643
 31
0.0
  0
LINE
  5
15B
330
1F
100
AcDbEntity
  8
0
  6
Continuous
 62
     7
370
    15
100
AcDbLine
 10
43.7125863771
 20
35.3887287119
 30
0.0
 11
43.7125863771
 21
35.5337377328
 31
0.0
  0
LWPOLYLINE
  5
15C
330
1F
100
AcDbEntity
  8
0
  6
Continuous
 62
     7
370
    15
100
AcDbPolyline
 90
        9
 70
   128
 43
0.0
 10
43.8375864397
 20
35.3359014027
 10
43.8351845808
 20
35.3462075513
 10
43.8280713296
 20
35.3561175645
 10
43.8165201431
 20
35.3652506792
 10
43.800974756
 20
35.3732559458
 10
43.7820326815
 20
35.3798256793
 10
43.7604218178
 20
35.3847074836
 10
43.7369727287
 20
35.3877136735
 10
43.7125863771
 20
35.3887287119
  0
LINE
  5
15D
330
1F
100
AcDbEntity
  8
0
  6
Continuous
 62
     7
370
    15
100
AcDbLine
 10
40.942586423
 20
35.5337377328
 30
0.0
 11
40.942586423
 21
35.3887287119
 31
0.0
  0
LWPOLYLINE
  5
15E
330
1F
100
AcDbEntity
  8
0
  6
Continuous
 62
     7
370
    15
100
AcDbPolyline
 90
        9
 70
   128
 43
0.0
 10
40.942586423
 20
35.3887287119
 10
40.9182001447
 20
35.3877136735
 10
40.8947509089
 20
35.3847074836
 10
40.8731401186
 20
35.3798256793
 10
40.8541980441
 20
35.3732559458
 10
40.8386527303
 20
35.3652506792
 10
40.8271013971
 20
35.3561175645
 10
40.8199882926
 20
35.3462075513
 10
40.8175863603
 20
35.3359014027
  0
LINE
  5
15F
330
1F
100
AcDbEntity
  8
0
  6
Continuous
 62
     7
370
    15
100
AcDbLine
 10
40.942586423
 20
35.3887287119
 30
0.0
 11
43.7125863771
 21
35.3887287119
 31
0.0
  0
LWPOLYLINE
  5
160
330
1F
100
AcDbEntity
  8
0
  6
Continuous
 62
     7
370
    15
100
AcDbPolyline
 90
        9
 70
   128
 43
0.0
 10
40.8175863603
 20
35.3359014027
 10
40.8199882926
 20
35.3462075513
 10
40.8271013971
 20
35.3561175645
 10
40.8386527303
 20
35.3652506792
 10
40.8541980441
 20
35.3732559458
 10
40.8731401186
 20
35.3798256793
 10
40.8947509089
 20
35.3847074836
 10
40.9182001447
 20
35.3877136735
 10
40.942586423
 20
35.3887287119
  0
LWPOLYLINE
  5
161
330
1F
100
AcDbEntity
  8
0
  6
Continuous
 62
     7
370
    15
100
AcDbPolyline
 90
        9
 70
   128
 43
0.0
 10
43.7125863771
 20
35.3887287119
 10
43.7369727287
 20
35.3877136735
 10
43.7604218178
 20
35.3847074836
 10
43.7820326815
 20
35.3798256793
 10
43.800974756
 20
35.3732559458
 10
43.8165201431
 20
35.3652506792
 10
43.8280713296
 20
35.3561175645
 10
43.8351845808
 20
35.3462075513
 10
43.8375864397
 20
35.3359014027
  0
LINE
  5
162
330
1F
100
AcDbEntity
  8
0
  6
Continuous
 62
     7
370
    15
100
AcDbLine
 10
41.4525864381
 20
34.6277834242
 30
0.0
 11
41.4525864381
 21
34.5371529191
 31
0.0
  0
LINE
  5
163
330
1F
100
AcDbEntity
  8
0
  6
Continuous
 62
     7
370
    15
100
AcDbLine
 10
43.2025863986
 20
34.6277834242
 30
0.0
 11
41.4525864381
 21
34.6277834242
 31
0.0
  0
LINE
  5
164
330
1F
100
AcDbEntity
  8
0
  6
Continuous
 62
     7
370
    15
100
AcDbLine
 10
43.2025863986
 20
34.6277834242
 30
0.0
 11
43.2025863986
 21
34.5371529191
 31
0.0
  0
LINE
  5
165
330
1F
100
AcDbEntity
  8
0
  6
Continuous
 62
     7
370
    15
100
AcDbLine
 10
43.2025863986
 20
34.5371529191
 30
0.0
 11
41.4525864381
 21
34.5371529191
 31
0.0
  0
LINE
  5
166
330
1F
100
AcDbEntity
  8
0
  6
Continuous
 62
     7
370
    15
100
AcDbLine
 10
41.4525864381
 20
34.6277834242
 30
0.0
 11
41.4525864381
 21
34.8602235103
 31
0.0
  0
LINE
  5
167
330
1F
100
AcDbEntity
  8
0
  6
Continuous
 62
     7
370
    15
100
AcDbLine
 10
41.4525864381
 20
34.8602235103
 30
0.0
 11
43.2025863986
 21
34.8602235103
 31
0.0
  0
LINE
  5
168
330
1F
100
AcDbEntity
  8
0
  6
Continuous
 62
     7
370
    15
100
AcDbLine
 10
43.2025863986
 20
34.8602235103
 30
0.0
 11
43.2025863986
 21
34.6277834242
 31
0.0
  0
LINE
  5
169
330
1F
100
AcDbEntity
  8
0
  6
Continuous
 62
     7
370
    15
100
AcDbLine
 10
53.8246897012
 20
32.5920078135
 30
0.0
 11
53.0946900275
 21
32.5920078135
 31
0.0
  0
LINE
  5
16A
330
1F
100
AcDbEntity
  8
0
  6
Continuous
 62
     7
370
    15
100
AcDbLine
 10
53.8246897012
 20
23.2270876748
 30
0.0
 11
53.0946900275
 21
23.2270876748
 31
0.0
  0
LINE
  5
16B
330
1F
100
AcDbEntity
  8
0
  6
Continuous
 62
     7
370
    15
100
AcDbLine
 10
53.0946900275
 20
32.5920078135
 30
0.0
 11
53.0946900275
 21
23.2270876748
 31
0.0
  0
LINE
  5
16C
330
1F
100
AcDbEntity
  8
0
  6
Continuous
 62
     7
370
    15
100
AcDbLine
 10
53.8246897012
 20
32.5920078135
 30
0.0
 11
53.8246897012
 21
23.2270876748
 31
0.0
  0
LINE
  5
16D
330
1F
100
AcDbEntity
  8
0
  6
Continuous
 62
     7
370
    15
100
AcDbLine
 10
53.0946900275
 20
37.5950529956
 30
0.0
 11
53.8246897012
 21
37.5950529956
 31
0.0
  0
LINE
  5
16E
330
1F
100
AcDbEntity
  8
0
  6
Continuous
 62
     7
370
    15
100
AcDbLine
 10
53.0946900275
 20
37.5950529956
 30
0.0
 11
53.0946900275
 21
32.5920078135
 31
0.0
  0
LINE
  5
16F
330
1F
100
AcDbEntity
  8
0
  6
Continuous
 62
     7
370
    15
100
AcDbLine
 10
53.8246897012
 20
37.5950529956
 30
0.0
 11
53.8246897012
 21
32.5920078135
 31
0.0
  0
LINE
  5
170
330
1F
100
AcDbEntity
  8
0
  6
Continuous
 62
     7
370
    15
100
AcDbLine
 10
53.8246897012
 20
19.1362837186
 30
0.0
 11
53.0946900275
 21
19.1362837186
 31
0.0
  0
LINE
  5
171
330
1F
100
AcDbEntity
  8
0
  6
Continuous
 62
     7
370
    15
100
AcDbLine
 10
53.0946900275
 20
23.2270876748
 30
0.0
 11
53.0946900275
 21
19.1362837186
 31
0.0
  0
LINE
  5
172
330
1F
100
AcDbEntity
  8
0
  6
Continuous
 62
     7
370
    15
100
AcDbLine
 10
53.8246897012
 20
23.2270876748
 30
0.0
 11
53.8246897012
 21
19.1362837186
 31
0.0
  0
LINE
  5
173
330
1F
100
AcDbEntity
  8
0
  6
Continuous
 62
     7
370
    15
100
AcDbLine
 10
31.5606899368
 20
32.5920078135
 30
0.0
 11
30.8306890898
 21
32.5920078135
 31
0.0
  0
LINE
  5
174
330
1F
100
AcDbEntity
  8
0
  6
Continuous
 62
     7
370
    15
100
AcDbLine
 10
31.5606899368
 20
23.2270876748
 30
0.0
 11
30.8306890898
 21
23.2270876748
 31
0.0
  0
LINE
  5
175
330
1F
100
AcDbEntity
  8
0
  6
Continuous
 62
     7
370
    15
100
AcDbLine
 10
31.5606899368
 20
32.5920078135
 30
0.0
 11
31.5606899368
 21
23.2270876748
 31
0.0
  0
LINE
  5
176
330
1F
100
AcDbEntity
  8
0
  6
Continuous
 62
     7
370
    15
100
AcDbLine
 10
30.8306890898
 20
32.5920078135
 30
0.0
 11
30.8306890898
 21
23.2270876748
 31
0.0
  0
LINE
  5
177
330
1F
100
AcDbEntity
  8
0
  6
Continuous
 62
     7
370
    15
100
AcDbLine
 10
30.8306890898
 20
37.5950529956
 30
0.0
 11
31.5606899368
 21
37.5950529956
 31
0.0
  0
LINE
  5
178
330
1F
100
AcDbEntity
  8
0
  6
Continuous
 62
     7
370
    15
100
AcDbLine
 10
31.5606899368
 20
37.5950529956
 30
0.0
 11
31.5606899368
 21
32.5920078135
 31
0.0
  0
LINE
  5
179
330
1F
100
AcDbEntity
  8
0
  6
Continuous
 62
     7
370
    15
100
AcDbLine
 10
30.8306890898
 20
37.5950529956
 30
0.0
 11
30.8306890898
 21
32.5920078135
 31
0.0
  0
LINE
  5
17A
330
1F
100
AcDbEntity
  8
0
  6
Continuous
 62
     7
370
    15
100
AcDbLine
 10
31.5606899368
 20
19.1362837186
 30
0.0
 11
30.8306890898
 21
19.1362837186
 31
0.0
  0
LINE
  5
17B
330
1F
100
AcDbEntity
  8
0
  6
Continuous
 62
     7
370
    15
100
AcDbLine
 10
31.5606899368
 20
23.2270876748
 30
0.0
 11
31.5606899368
 21
19.1362837186
 31
0.0
  0
LINE
  5
17C
330
1F
100
AcDbEntity
  8
0
  6
Continuous
 62
     7
370
    15
100
AcDbLine
 10
30.8306890898
 20
23.2270876748
 30
0.0
 11
30.8306890898
 21
19.1362837186
 31
0.0
  0
LINE
  5
17D
330
1F
100
AcDbEntity
  8
0
  6
Continuous
 62
     7
370
    15
100
AcDbLine
 10
31.5606899368
 20
19.1938926153
 30
0.0
 11
53.0946900275
 21
19.1938926153
 31
0.0
  0
LINE
  5
17E
330
1F
100
AcDbEntity
  8
0
  6
Continuous
 62
     7
370
    15
100
AcDbLine
 10
31.5606899368
 20
19.4787852506
 30
0.0
 11
53.0946900275
 21
19.4787852506
 31
0.0
  0
LINE
  5
17F
330
1F
100
AcDbEntity
  8
0
  6
Continuous
 62
     7
370
    15
100
AcDbLine
 10
31.5606899368
 20
19.4914161814
 30
0.0
 11
53.0946900275
 21
19.4914161814
 31
0.0
  0
LWPOLYLINE
  5
180
330
1F
100
AcDbEntity
  8
0
  6
Continuous
 62
     7
370
    15
100
AcDbPolyline
 90
       37
 70
   128
 43
0.0
 10
32.5764375628
 20
22.5148706826
 10
32.6591812469
 20
22.5173465174
 10
32.7394105068
 20
22.5246993029
 10
32.8146871839
 20
22.5367047094
 10
32.8827256512
 20
22.5529988476
 10
32.9414573461
 20
22.5730865718
 10
32.9890988224
 20
22.5963567322
 10
33.0242010302
 20
22.6221032232
 10
33.0456985952
 20
22.6495434671
 10
33.0529379782
 20
22.6778432776
 10
33.0456985952
 20
22.7061430881
 10
33.0242010302
 20
22.733583332
 10
32.9890988224
 20
22.7593293272
 10
32.9414573461
 20
22.7825999834
 10
32.8827256512
 20
22.8026877077
 10
32.8146871839
 20
22.8189818458
 10
32.7394105068
 20
22.8309872523
 10
32.6591812469
 20
22.8383400378
 10
32.5764375628
 20
22.8408158726
 10
32.4936938787
 20
22.8383400378
 10
32.4134646188
 20
22.8309872523
 10
32.3381879417
 20
22.8189818458
 10
32.2701494744
 20
22.8026877077
 10
32.2114177795
 20
22.7825999834
 10
32.1637763032
 20
22.7593293272
 10
32.1286740954
 20
22.733583332
 10
32.1071765304
 20
22.7061430881
 10
32.0999371474
 20
22.6778432776
 10
32.1071765304
 20
22.6495434671
 10
32.1286740954
 20
22.6221032232
 10
32.1637763032
 20
22.5963567322
 10
32.2114177795
 20
22.5730865718
 10
32.2701494744
 20
22.5529988476
 10
32.3381879417
 20
22.5367047094
 10
32.4134646188
 20
22.5246993029
 10
32.4936938787
 20
22.5173465174
 10
32.5764375628
 20
22.5148706826
  0
LWPOLYLINE
  5
181
330
1F
100
AcDbEntity
  8
0
  6
Continuous
 62
     7
370
    15
100
AcDbPolyline
 90
       37
 70
   128
 43
0.0
 10
52.0789412282
 20
22.5148706826
 10
52.1616849123
 20
22.5173465174
 10
52.2419141722
 20
22.5246993029
 10
52.3171914359
 20
22.5367047094
 10
52.3852299033
 20
22.5529988476
 10
52.4439615981
 20
22.5730865718
 10
52.4916024878
 20
22.5963567322
 10
52.5267046956
 20
22.6221032232
 10
52.5482022606
 20
22.6495434671
 10
52.5554416436
 20
22.6778432776
 10
52.5482022606
 20
22.7061430881
 10
52.5267046956
 20
22.733583332
 10
52.4916024878
 20
22.7593293272
 10
52.4439615981
 20
22.7825999834
 10
52.3852299033
 20
22.8026877077
 10
52.3171914359
 20
22.8189818458
 10
52.2419141722
 20
22.8309872523
 10
52.1616849123
 20
22.8383400378
 10
52.0789412282
 20
22.8408158726
 10
51.9961981307
 20
22.8383400378
 10
51.9159688709
 20
22.8309872523
 10
51.8406916072
 20
22.8189818458
 10
51.7726531398
 20
22.8026877077
 10
51.713921445
 20
22.7825999834
 10
51.6662805553
 20
22.7593293272
 10
51.6311777608
 20
22.733583332
 10
51.6096807825
 20
22.7061430881
 10
51.6024413994
 20
22.6778432776
 10
51.6096807825
 20
22.6495434671
 10
51.6311777608
 20
22.6221032232
 10
51.6662805553
 20
22.5963567322
 10
51.713921445
 20
22.5730865718
 10
51.7726531398
 20
22.5529988476
 10
51.8406916072
 20
22.5367047094
 10
51.9159688709
 20
22.5246993029
 10
51.9961981307
 20
22.5173465174
 10
52.0789412282
 20
22.5148706826
  0
ARC
  5
182
330
1F
100
AcDbEntity
  8
0
  6
Continuous
 62
     7
370
    15
100
AcDbCircle
 10
52.0825676946
 20
24.1082857208
 30
0.0
 40
1.292718783613993
100
AcDbArc
 50
269.8392678334
 51
278.0147640251
  0
ARC
  5
183
330
1F
100
AcDbEntity
  8
0
  6
Continuous
 62
     7
370
    15
100
AcDbCircle
 10
52.0753153211
 20
24.1082854907
 30
0.0
 40
1.292718551962952
100
AcDbArc
 50
261.985235754
 51
270.1607074063
  0
ARC
  5
184
330
1F
100
AcDbEntity
  8
0
  6
Continuous
 62
     7
370
    15
100
AcDbCircle
 10
32.5800663145
 20
24.1082440527
 30
0.0
 40
1.29267712206918
100
AcDbArc
 50
269.8391613603
 51
278.0148954794
  0
ARC
  5
185
330
1F
100
AcDbEntity
  8
0
  6
Continuous
 62
     7
370
    15
100
AcDbCircle
 10
32.5728088111
 20
24.1082440527
 30
0.0
 40
1.292677122069084
100
AcDbArc
 50
261.9851045206
 51
270.1608386397
  0
LINE
  5
186
330
1F
100
AcDbEntity
  8
0
  6
Continuous
 62
     7
370
    15
100
AcDbLine
 10
31.5606899368
 20
23.0060035974
 30
0.0
 11
53.0946900275
 21
23.0060035974
 31
0.0
  0
LINE
  5
187
330
1F
100
AcDbEntity
  8
0
  6
Continuous
 62
     7
370
    15
100
AcDbLine
 10
31.5606899368
 20
23.2203818476
 30
0.0
 11
53.0946900275
 21
23.2203818476
 31
0.0
  0
LINE
  5
188
330
1F
100
AcDbEntity
  8
0
  6
Continuous
 62
     7
370
    15
100
AcDbLine
 10
31.5606899368
 20
31.8948072961
 30
0.0
 11
53.0946900275
 21
31.8948072961
 31
0.0
  0
LINE
  5
189
330
1F
100
AcDbEntity
  8
0
  6
Continuous
 62
     7
370
    15
100
AcDbLine
 10
31.5606899368
 20
32.5446970337
 30
0.0
 11
53.0946900275
 21
32.5446970337
 31
0.0
  0
LINE
  5
18A
330
1F
100
AcDbEntity
  8
0
  6
Continuous
 62
     7
370
    15
100
AcDbLine
 10
31.5606899368
 20
37.5397679409
 30
0.0
 11
53.0946900275
 21
37.5397679409
 31
0.0
  0
LWPOLYLINE
  5
18B
330
1F
100
AcDbEntity
  8
0
  6
Continuous
 62
     7
370
    15
100
AcDbPolyline
 90
        9
 70
   128
 43
0.0
 10
44.3176894602
 20
34.4409196433
 10
44.3128857423
 20
34.4203073463
 10
44.2986593867
 20
34.4004873197
 10
44.2755568669
 20
34.3822210904
 10
44.2444662394
 20
34.3662105572
 10
44.206582017
 20
34.3530709663
 10
44.163360363
 20
34.3433074815
 10
44.1164620381
 20
34.3372951018
 10
44.0676894815
 20
34.3352650249
  0
LINE
  5
18C
330
1F
100
AcDbEntity
  8
0
  6
Continuous
 62
     7
370
    15
100
AcDbLine
 10
44.3176894602
 20
35.6601732801
 30
0.0
 11
44.3176894602
 21
34.4409196433
 31
0.0
  0
LWPOLYLINE
  5
18D
330
1F
100
AcDbEntity
  8
0
  6
Continuous
 62
     7
370
    15
100
AcDbPolyline
 90
        9
 70
   128
 43
0.0
 10
44.0676894815
 20
35.7658278365
 10
44.1164620381
 20
35.7637976976
 10
44.163360363
 20
35.7577853489
 10
44.206582017
 20
35.7480218332
 10
44.2444662394
 20
35.7348823042
 10
44.2755568669
 20
35.718871771
 10
44.2986593867
 20
35.7006055417
 10
44.3128857423
 20
35.6807854532
 10
44.3176894602
 20
35.6601732801
  0
LINE
  5
18E
330
1F
100
AcDbEntity
  8
0
  6
Continuous
 62
     7
370
    15
100
AcDbLine
 10
40.5876894561
 20
35.7658278365
 30
0.0
 11
44.0676894815
 21
35.7658278365
 31
0.0
  0
LWPOLYLINE
  5
18F
330
1F
100
AcDbEntity
  8
0
  6
Continuous
 62
     7
370
    15
100
AcDbPolyline
 90
        9
 70
   128
 43
0.0
 10
40.3376894775
 20
35.6601732801
 10
40.3424930487
 20
35.6807854532
 10
40.356719551
 20
35.7006055417
 10
40.3798222174
 20
35.718871771
 10
40.4109128449
 20
35.7348823042
 10
40.448796994
 20
35.7480218332
 10
40.4920185747
 20
35.7577853489
 10
40.5389168996
 20
35.7637976976
 10
40.5876894561
 20
35.7658278365
  0
LINE
  5
190
330
1F
100
AcDbEntity
  8
0
  6
Continuous
 62
     7
370
    15
100
AcDbLine
 10
40.3376894775
 20
35.6601732801
 30
0.0
 11
40.3376894775
 21
34.4409196433
 31
0.0
  0
LWPOLYLINE
  5
191
330
1F
100
AcDbEntity
  8
0
  6
Continuous
 62
     7
370
    15
100
AcDbPolyline
 90
        9
 70
   128
 43
0.0
 10
40.5876894561
 20
34.3352650249
 10
40.5389168996
 20
34.3372951018
 10
40.4920185747
 20
34.3433074815
 10
40.448796994
 20
34.3530709663
 10
40.4109128449
 20
34.3662105572
 10
40.3798222174
 20
34.3822210904
 10
40.356719551
 20
34.4004873197
 10
40.3424930487
 20
34.4203073463
 10
40.3376894775
 20
34.4409196433
  0
LINE
  5
192
330
1F
100
AcDbEntity
  8
0
  6
Continuous
 62
     7
370
    15
100
AcDbLine
 10
40.5876894561
 20
34.3352650249
 30
0.0
 11
44.0676894815
 21
34.3352650249
 31
0.0
  0
LWPOLYLINE
  5
193
330
1F
100
AcDbEntity
  8
0
  6
Continuous
 62
     7
370
    15
100
AcDbPolyline
 90
       37
 70
   128
 43
0.0
 10
52.0789412282
 20
35.5041509736
 10
52.1616849123
 20
35.5072103451
 10
52.2419141722
 20
35.5162954847
 10
52.3171914359
 20
35.5311304427
 10
52.3852299033
 20
35.5512643527
 10
52.4439615981
 20
35.5760855015
 10
52.4916024878
 20
35.6048397383
 10
52.5267046956
 20
35.6366533466
 10
52.5482022606
 20
35.670559697
 10
52.5554416436
 20
35.705528565
 10
52.5482022606
 20
35.740497433
 10
52.5267046956
 20
35.7744037523
 10
52.4916024878
 20
35.8062173606
 10
52.4439615981
 20
35.8349715665
 10
52.3852299033
 20
35.8597927462
 10
52.3171914359
 20
35.8799266562
 10
52.2419141722
 20
35.8947615832
 10
52.1616849123
 20
35.9038467848
 10
52.0789412282
 20
35.9069061563
 10
51.9961981307
 20
35.9038467848
 10
51.9159688709
 20
35.8947615832
 10
51.8406916072
 20
35.8799266562
 10
51.7726531398
 20
35.8597927462
 10
51.713921445
 20
35.8349715665
 10
51.6662805553
 20
35.8062173606
 10
51.6311777608
 20
35.7744037523
 10
51.6096807825
 20
35.740497433
 10
51.6024413994
 20
35.705528565
 10
51.6096807825
 20
35.670559697
 10
51.6311777608
 20
35.6366533466
 10
51.6662805553
 20
35.6048397383
 10
51.713921445
 20
35.5760855015
 10
51.7726531398
 20
35.5512643527
 10
51.8406916072
 20
35.5311304427
 10
51.9159688709
 20
35.5162954847
 10
51.9961981307
 20
35.5072103451
 10
52.0789412282
 20
35.5041509736
  0
LWPOLYLINE
  5
194
330
1F
100
AcDbEntity
  8
0
  6
Continuous
 62
     7
370
    15
100
AcDbPolyline
 90
       37
 70
   128
 43
0.0
 10
32.5764375628
 20
35.5041509736
 10
32.6591812469
 20
35.5072103451
 10
32.7394105068
 20
35.5162954847
 10
32.8146871839
 20
35.5311304427
 10
32.8827256512
 20
35.5512643527
 10
32.9414573461
 20
35.5760855015
 10
32.9890988224
 20
35.6048397383
 10
33.0242010302
 20
35.6366533466
 10
33.0456985952
 20
35.670559697
 10
33.0529379782
 20
35.705528565
 10
33.0456985952
 20
35.740497433
 10
33.0242010302
 20
35.7744037523
 10
32.9890988224
 20
35.8062173606
 10
32.9414573461
 20
35.8349715665
 10
32.8827256512
 20
35.8597927462
 10
32.8146871839
 20
35.8799266562
 10
32.7394105068
 20
35.8947615832
 10
32.6591812469
 20
35.9038467848
 10
32.5764375628
 20
35.9069061563
 10
32.4936938787
 20
35.9038467848
 10
32.4134646188
 20
35.8947615832
 10
32.3381879417
 20
35.8799266562
 10
32.2701494744
 20
35.8597927462
 10
32.2114177795
 20
35.8349715665
 10
32.1637763032
 20
35.8062173606
 10
32.1286740954
 20
35.7744037523
 10
32.1071765304
 20
35.740497433
 10
32.0999371474
 20
35.705528565
 10
32.1071765304
 20
35.670559697
 10
32.1286740954
 20
35.6366533466
 10
32.1637763032
 20
35.6048397383
 10
32.2114177795
 20
35.5760855015
 10
32.2701494744
 20
35.5512643527
 10
32.3381879417
 20
35.5311304427
 10
32.4134646188
 20
35.5162954847
 10
32.4936938787
 20
35.5072103451
 10
32.5764375628
 20
35.5041509736
  0
ARC
  5
195
330
1F
100
AcDbEntity
  8
0
  6
Continuous
 62
     7
370
    15
100
AcDbCircle
 10
44.2326878711
 20
35.472361569
 30
0.0
 40
0.0864236623576178
100
AcDbArc
 50
10.4082952609
 51
66.183604961
  0
ARC
  5
196
330
1F
100
AcDbEntity
  8
0
  6
Continuous
 62
     7
370
    15
100
AcDbCircle
 10
40.4225894986
 20
35.4724106504
 30
0.0
 40
0.0863149037781143
100
AcDbArc
 50
113.9242335327
 51
169.6115684801
  0
ARC
  5
197
330
1F
100
AcDbEntity
  8
0
  6
Continuous
 62
     7
370
    15
100
AcDbCircle
 10
52.0789415215
 20
34.6603673073
 30
0.0
 40
0.9589544353459273
100
AcDbArc
 50
69.8311475946
 51
110.1688524054
  0
ARC
  5
198
330
1F
100
AcDbEntity
  8
0
  6
Continuous
 62
     7
370
    15
100
AcDbCircle
 10
32.5764375628
 20
34.6603684956
 30
0.0
 40
0.9589532188151144
100
AcDbArc
 50
69.8311395672
 51
110.1688604328
  0
LWPOLYLINE
  5
199
330
1F
100
AcDbEntity
  8
0
  6
Continuous
 62
     7
370
    15
100
AcDbPolyline
 90
        3
 70
   128
 43
0.0
 10
52.0272482787
 20
35.5053393758
 10
52.0789412282
 20
35.5079577052
 10
52.1306341777
 20
35.5053393758
  0
LWPOLYLINE
  5
19A
330
1F
100
AcDbEntity
  8
0
  6
Continuous
 62
     7
370
    15
100
AcDbPolyline
 90
        3
 70
   128
 43
0.0
 10
32.5247446133
 20
35.5053393758
 10
32.5764375628
 20
35.5079577052
 10
32.6281305123
 20
35.5053393758
  0
LINE
  5
19B
330
1F
100
AcDbEntity
  8
0
  6
Continuous
 62
     8
370
    15
100
AcDbLine
 10
44.0676894815
 20
35.7175765673
 30
0.0
 11
44.0676894815
 21
35.7658278365
 31
0.0
  0
LINE
  5
19C
330
1F
100
AcDbEntity
  8
0
  6
Continuous
 62
     8
370
    15
100
AcDbLine
 10
40.5876894561
 20
35.7658278365
 30
0.0
 11
40.5876894561
 21
35.7175765673
 31
0.0
  0
ENDSEC
  0
SECTION
  2
OBJECTS
  0
DICTIONARY
  5
C
330
0
100
AcDbDictionary
281
     1
  3
ACAD_DETAILVIEWSTYLE
350
1A1
  3
ACAD_GROUP
350
D
  3
ACAD_LAYOUT
350
1A
  3
ACAD_MATERIAL
350
43
  3
ACAD_MLEADERSTYLE
350
1A0
  3
ACAD_MLINESTYLE
350
17
  3
ACAD_PLOTSETTINGS
350
19
  3
ACAD_PLOTSTYLENAME
350
E
  3
ACAD_SCALELIST
350
47
  3
ACAD_SECTIONVIEWSTYLE
350
1A2
  3
ACAD_TABLESTYLE
350
19F
  3
ACAD_VISUALSTYLE
350
2A
  3
AcDbVariableDictionary
350
19D
  0
SUN
  5
69
330
29
100
AcDbSun
 90
        1
290
     0
 63
     7
421
 16777215
 40
1.0
291
     1
 91
  2455826
 92
 54000000
292
     0
 70
     2
 71
   256
280
     1
  0
DICTIONARY
  5
1A1
102
{ACAD_REACTORS
330
C
102
}
330
C
100
AcDbDictionary
281
     1
  0
DICTIONARY
  5
D
102
{ACAD_REACTORS
330
C
102
}
330
C
100
AcDbDictionary
281
     1
  0
DICTIONARY
  5
1A
102
{ACAD_REACTORS
330
C
102
}
330
C
100
AcDbDictionary
281
     1
  3
Layout1
350
1E
  3
Layout2
350
26
  3
Model
350
22
  0
DICTIONARY
  5
43
102
{ACAD_REACTORS
330
C
102
}
330
C
100
AcDbDictionary
281
     1
  3
ByBlock
350
45
  3
ByLayer
350
44
  3
Global
350
46
  0
DICTIONARY
  5
1A0
102
{ACAD_REACTORS
330
C
102
}
330
C
100
AcDbDictionary
281
     1
  0
DICTIONARY
  5
17
102
{ACAD_REACTORS
330
C
102
}
330
C
100
AcDbDictionary
281
     1
  3
Standard
350
18
  0
DICTIONARY
  5
19
102
{ACAD_REACTORS
330
C
102
}
330
C
100
AcDbDictionary
281
     1
  0
ACDBDICTIONARYWDFLT
  5
E
102
{ACAD_REACTORS
330
C
102
}
330
C
100
AcDbDictionary
281
     1
  3
Normal
350
F
100
AcDbDictionaryWithDefault
340
F
  0
DICTIONARY
  5
47
102
{ACAD_REACTORS
330
C
102
}
330
C
100
AcDbDictionary
281
     1
  3
A0
350
48
  3
A1
350
49
  3
A2
350
4A
  3
A3
350
4B
  3
A4
350
4C
  3
A5
350
4D
  3
A6
350
4E
  3
A7
350
4F
  3
A8
350
50
  3
A9
350
51
  3
B0
350
52
  3
B1
350
53
  3
B2
350
54
  3
B3
350
55
  3
B4
350
56
  3
B5
350
57
  3
B6
350
58
  3
B7
350
59
  3
B8
350
5A
  3
B9
350
5B
  3
C0
350
5C
  3
C1
350
5D
  3
C2
350
5E
  3
C3
350
5F
  3
C4
350
60
  3
C5
350
61
  3
C6
350
62
  3
C7
350
63
  3
C8
350
64
  3
C9
350
65
  3
D0
350
66
  3
D1
350
67
  3
D2
350
68
  0
DICTIONARY
  5
1A2
102
{ACAD_REACTORS
330
C
102
}
330
C
100
AcDbDictionary
281
     1
  0
DICTIONARY
  5
19F
102
{ACAD_REACTORS
330
C
102
}
330
C
100
AcDbDictionary
281
     1
  0
DICTIONARY
  5
2A
102
{ACAD_REACTORS
330
C
102
}
330
C
100
AcDbDictionary
281
     1
  3
2dWireframe
350
2F
  3
Basic
350
32
  3
Brighten
350
36
  3
ColorChange
350
3A
  3
Conceptual
350
34
  3
Dim
350
35
  3
EdgeColorOff
350
3D
  3
Facepattern
350
39
  3
Flat
350
2B
  3
FlatWithEdges
350
2C
  3
Gouraud
350
2D
  3
GouraudWithEdges
350
2E
  3
Hidden
350
31
  3
JitterOff
350
3B
  3
Linepattern
350
38
  3
OverhangOff
350
3C
  3
Realistic
350
33
  3
Shaded
350
42
  3
Shaded with edges
350
41
  3
Shades of Gray
350
3E
  3
Sketchy
350
3F
  3
Thicken
350
37
  3
Wireframe
350
30
  3
X-Ray
350
40
  0
DICTIONARY
  5
19D
102
{ACAD_REACTORS
330
C
102
}
330
C
100
AcDbDictionary
281
     1
  3
CANNOSCALE
350
19E
  0
LAYOUT
  5
1E
102
{ACAD_REACTORS
330
1A
102
}
330
1A
100
AcDbPlotSettings
  1

  2
none_device
  4

  6

 40
0.0
 41
0.0
 42
0.0
 43
0.0
 44
0.0
 45
0.0
 46
0.0
 47
0.0
 48
0.0
 49
0.0
140
0.0
141
0.0
142
1.0
143
1.0
 70
   688
 72
     0
 73
     0
 74
     5
  7

 75
    16
 76
     0
 77
     2
 78
   300
147
1.0
148
0.0
149
0.0
100
AcDbLayout
  1
Layout1
 70
     1
 71
     1
 10
0.0
 20
0.0
 11
12.0
 21
9.0
 12
0.0
 22
0.0
 32
0.0
 14
1.0000000000E+20
 24
1.0000000000E+20
 34
1.0000000000E+20
 15
-1.0000000000E+20
 25
-1.0000000000E+20
 35
-1.0000000000E+20
146
0.0
 13
0.0
 23
0.0
 33
0.0
 16
1.0
 26
0.0
 36
0.0
 17
0.0
 27
1.0
 37
0.0
 76
     0
330
1B
  0
LAYOUT
  5
26
102
{ACAD_REACTORS
330
1A
102
}
330
1A
100
AcDbPlotSettings
  1

  2
none_device
  4

  6

 40
0.0
 41
0.0
 42
0.0
 43
0.0
 44
0.0
 45
0.0
 46
0.0
 47
0.0
 48
0.0
 49
0.0
140
0.0
141
0.0
142
1.0
143
1.0
 70
   688
 72
     0
 73
     0
 74
     5
  7

 75
    16
 76
     0
 77
     2
 78
   300
147
1.0
148
0.0
149
0.0
100
AcDbLayout
  1
Layout2
 70
     1
 71
     2
 10
0.0
 20
0.0
 11
0.0
 21
0.0
 12
0.0
 22
0.0
 32
0.0
 14
0.0
 24
0.0
 34
0.0
 15
0.0
 25
0.0
 35
0.0
146
0.0
 13
0.0
 23
0.0
 33
0.0
 16
1.0
 26
0.0
 36
0.0
 17
0.0
 27
1.0
 37
0.0
 76
     0
330
23
  0
LAYOUT
  5
22
102
{ACAD_REACTORS
330
1A
102
}
330
1A
100
AcDbPlotSettings
  1

  2
none_device
  4
Letter_(8.50_x_11.00_Inches)
  6

 40
6.35
 41
6.35
 42
6.35000508
 43
6.35000508
 44
215.9
 45
279.4
 46
0.0
 47
0.0
 48
0.0
 49
0.0
140
0.0
141
0.0
142
1.0
143
1.0
 70
  1712
 72
     0
 73
     0
 74
     0
  7

 75
     0
 76
     0
 77
     2
 78
   300
147
1.0
148
0.0
149
0.0
100
AcDbLayout
  1
Model
 70
     1
 71
     0
 10
0.0
 20
0.0
 11
100.0
 21
150.0
 12
0.0
 22
0.0
 32
0.0
 14
0.0
 24
0.0
 34
0.0
 15
100.0
 25
150.0
 35
0.0
146
0.0
 13
0.0
 23
0.0
 33
0.0
 16
1.0
 26
0.0
 36
0.0
 17
0.0
 27
1.0
 37
0.0
 76
     0
330
1F
331
29
  0
MATERIAL
  5
45
102
{ACAD_REACTORS
330
43
102
}
330
43
100
AcDbMaterial
  1
ByBlock
 72
     1
 94
      127
  0
MATERIAL
  5
44
102
{ACAD_REACTORS
330
43
102
}
330
43
100
AcDbMaterial
  1
ByLayer
 72
     1
 94
      127
  0
MATERIAL
  5
46
102
{ACAD_REACTORS
330
43
102
}
330
43
100
AcDbMaterial
  1
Global
 72
     1
 94
      127
  0
MLINESTYLE
  5
18
102
{ACAD_REACTORS
330
17
102
}
330
17
100
AcDbMlineStyle
  2
Standard
 70
     0
  3

 62
   256
 51
90.0
 52
90.0
 71
     2
 49
0.5
 62
   256
  6
BYLAYER
 49
-0.5
 62
   256
  6
BYLAYER
  0
ACDBPLACEHOLDER
  5
F
102
{ACAD_REACTORS
330
E
102
}
330
E
  0
SCALE
  5
48
102
{ACAD_REACTORS
330
47
102
}
330
47
100
AcDbScale
 70
     0
300
1:1
140
1.0
141
1.0
290
     1
  0
SCALE
  5
49
102
{ACAD_REACTORS
330
47
102
}
330
47
100
AcDbScale
 70
     0
300
1:2
140
1.0
141
2.0
290
     0
  0
SCALE
  5
4A
102
{ACAD_REACTORS
330
47
102
}
330
47
100
AcDbScale
 70
     0
300
1:4
140
1.0
141
4.0
290
     0
  0
SCALE
  5
4B
102
{ACAD_REACTORS
330
47
102
}
330
47
100
AcDbScale
 70
     0
300
1:5
140
1.0
141
5.0
290
     0
  0
SCALE
  5
4C
102
{ACAD_REACTORS
330
47
102
}
330
47
100
AcDbScale
 70
     0
300
1:8
140
1.0
141
8.0
290
     0
  0
SCALE
  5
4D
102
{ACAD_REACTORS
330
47
102
}
330
47
100
AcDbScale
 70
     0
300
1:10
140
1.0
141
10.0
290
     0
  0
SCALE
  5
4E
102
{ACAD_REACTORS
330
47
102
}
330
47
100
AcDbScale
 70
     0
300
1:16
140
1.0
141
16.0
290
     0
  0
SCALE
  5
4F
102
{ACAD_REACTORS
330
47
102
}
330
47
100
AcDbScale
 70
     0
300
1:20
140
1.0
141
20.0
290
     0
  0
SCALE
  5
50
102
{ACAD_REACTORS
330
47
102
}
330
47
100
AcDbScale
 70
     0
300
1:30
140
1.0
141
30.0
290
     0
  0
SCALE
  5
51
102
{ACAD_REACTORS
330
47
102
}
330
47
100
AcDbScale
 70
     0
300
1:40
140
1.0
141
40.0
290
     0
  0
SCALE
  5
52
102
{ACAD_REACTORS
330
47
102
}
330
47
100
AcDbScale
 70
     0
300
1:50
140
1.0
141
50.0
290
     0
  0
SCALE
  5
53
102
{ACAD_REACTORS
330
47
102
}
330
47
100
AcDbScale
 70
     0
300
1:100
140
1.0
141
100.0
290
     0
  0
SCALE
  5
54
102
{ACAD_REACTORS
330
47
102
}
330
47
100
AcDbScale
 70
     0
300
2:1
140
2.0
141
1.0
290
     0
  0
SCALE
  5
55
102
{ACAD_REACTORS
330
47
102
}
330
47
100
AcDbScale
 70
     0
300
4:1
140
4.0
141
1.0
290
     0
  0
SCALE
  5
56
102
{ACAD_REACTORS
330
47
102
}
330
47
100
AcDbScale
 70
     0
300
8:1
140
8.0
141
1.0
290
     0
  0
SCALE
  5
57
102
{ACAD_REACTORS
330
47
102
}
330
47
100
AcDbScale
 70
     0
300
10:1
140
10.0
141
1.0
290
     0
  0
SCALE
  5
58
102
{ACAD_REACTORS
330
47
102
}
330
47
100
AcDbScale
 70
     0
300
100:1
140
100.0
141
1.0
290
     0
  0
SCALE
  5
59
102
{ACAD_REACTORS
330
47
102
}
330
47
100
AcDbScale
 70
     0
300
1/128" = 1'-0"
140
0.0078125
141
12.0
290
     0
  0
SCALE
  5
5A
102
{ACAD_REACTORS
330
47
102
}
330
47
100
AcDbScale
 70
     0
300
1/64" = 1'-0"
140
0.015625
141
12.0
290
     0
  0
SCALE
  5
5B
102
{ACAD_REACTORS
330
47
102
}
330
47
100
AcDbScale
 70
     0
300
1/32" = 1'-0"
140
0.03125
141
12.0
290
     0
  0
SCALE
  5
5C
102
{ACAD_REACTORS
330
47
102
}
330
47
100
AcDbScale
 70
     0
300
1/16" = 1'-0"
140
0.0625
141
12.0
290
     0
  0
SCALE
  5
5D
102
{ACAD_REACTORS
330
47
102
}
330
47
100
AcDbScale
 70
     0
300
3/32" = 1'-0"
140
0.09375
141
12.0
290
     0
  0
SCALE
  5
5E
102
{ACAD_REACTORS
330
47
102
}
330
47
100
AcDbScale
 70
     0
300
1/8" = 1'-0"
140
0.125
141
12.0
290
     0
  0
SCALE
  5
5F
102
{ACAD_REACTORS
330
47
102
}
330
47
100
AcDbScale
 70
     0
300
3/16" = 1'-0"
140
0.1875
141
12.0
290
     0
  0
SCALE
  5
60
102
{ACAD_REACTORS
330
47
102
}
330
47
100
AcDbScale
 70
     0
300
1/4" = 1'-0"
140
0.25
141
12.0
290
     0
  0
SCALE
  5
61
102
{ACAD_REACTORS
330
47
102
}
330
47
100
AcDbScale
 70
     0
300
3/8" = 1'-0"
140
0.375
141
12.0
290
     0
  0
SCALE
  5
62
102
{ACAD_REACTORS
330
47
102
}
330
47
100
AcDbScale
 70
     0
300
1/2" = 1'-0"
140
0.5
141
12.0
290
     0
  0
SCALE
  5
63
102
{ACAD_REACTORS
330
47
102
}
330
47
100
AcDbScale
 70
     0
300
3/4" = 1'-0"
140
0.75
141
12.0
290
     0
  0
SCALE
  5
64
102
{ACAD_REACTORS
330
47
102
}
330
47
100
AcDbScale
 70
     0
300
1" = 1'-0"
140
1.0
141
12.0
290
     0
  0
SCALE
  5
65
102
{ACAD_REACTORS
330
47
102
}
330
47
100
AcDbScale
 70
     0
300
1-1/2" = 1'-0"
140
1.5
141
12.0
290
     0
  0
SCALE
  5
66
102
{ACAD_REACTORS
330
47
102
}
330
47
100
AcDbScale
 70
     0
300
3" = 1'-0"
140
3.0
141
12.0
290
     0
  0
SCALE
  5
67
102
{ACAD_REACTORS
330
47
102
}
330
47
100
AcDbScale
 70
     0
300
6" = 1'-0"
140
6.0
141
12.0
290
     0
  0
SCALE
  5
68
102
{ACAD_REACTORS
330
47
102
}
330
47
100
AcDbScale
 70
     0
300
1'-0" = 1'-0"
140
12.0
141
12.0
290
     0
  0
VISUALSTYLE
  5
2F
102
{ACAD_REACTORS
330
2A
102
}
330
2A
100
AcDbVisualStyle
  2
2dWireframe
 70
     4
177
     2
291
     0
 71
     0
176
     1
 72
     2
176
     1
 73
     0
176
     1
 90
        0
176
     1
 40
0.6
176
     1
 41
30.0
176
     1
 62
     5
 63
     7
421
 16777215
176
     1
 74
     1
176
     1
 91
        4
176
     1
 64
     7
176
     1
 65
   257
176
     1
 75
     1
176
     1
175
     1
176
     1
 42
1.0
176
     1
 92
        0
176
     1
 66
   257
176
     1
 43
1.0
176
     1
 76
     1
176
     1
 77
     6
176
     1
 78
     2
176
     1
 67
     7
176
     1
 79
     5
176
     1
170
     0
176
     1
171
     0
176
     1
290
     0
176
     1
 93
        1
176
     1
 44
0.0
176
     1
173
     0
176
     1
  0
VISUALSTYLE
  5
32
102
{ACAD_REACTORS
330
2A
102
}
330
2A
100
AcDbVisualStyle
  2
Basic
 70
     7
177
     2
291
     1
 71
     1
176
     1
 72
     0
176
     1
 73
     1
176
     1
 90
        0
176
     1
 40
0.6
176
     1
 41
30.0
176
     1
 62
     5
 63
     7
421
 16777215
176
     1
 74
     0
176
     1
 91
        4
176
     1
 64
     7
176
     1
 65
   257
176
     1
 75
     1
176
     1
175
     1
176
     1
 42
1.0
176
     1
 92
        8
176
     1
 66
     7
176
     1
 43
1.0
176
     1
 76
     1
176
     1
 77
     6
176
     1
 78
     2
176
     1
 67
     7
176
     1
 79
     5
176
     1
170
     0
176
     1
171
     0
176
     1
290
     0
176
     1
 93
        1
176
     1
 44
0.0
176
     1
173
     0
176
     1
  0
VISUALSTYLE
  5
36
102
{ACAD_REACTORS
330
2A
102
}
330
2A
100
AcDbVisualStyle
  2
Brighten
 70
    12
177
     2
291
     1
 71
     2
176
     1
 72
     2
176
     1
 73
     0
176
     1
 90
        0
176
     1
 40
0.6
176
     1
 41
30.0
176
     1
 62
     5
 63
     7
421
 16777215
176
     1
 74
     1
176
     1
 91
        4
176
     1
 64
     7
176
     1
 65
   257
176
     1
 75
     1
176
     1
175
     1
176
     1
 42
1.0
176
     1
 92
        8
176
     1
 66
     7
176
     1
 43
1.0
176
     1
 76
     1
176
     1
 77
     6
176
     1
 78
     2
176
     1
 67
     7
176
     1
 79
     5
176
     1
170
     0
176
     1
171
     0
176
     1
290
     0
176
     1
 93
        1
176
     1
 44
50.0
176
     1
173
     0
176
     1
  0
VISUALSTYLE
  5
3A
102
{ACAD_REACTORS
330
2A
102
}
330
2A
100
AcDbVisualStyle
  2
ColorChange
 70
    16
177
     2
291
     1
 71
     2
176
     1
 72
     2
176
     1
 73
     3
176
     1
 90
        0
176
     1
 40
0.6
176
     1
 41
30.0
176
     1
 62
     5
 63
     8
421
  8421504
176
     1
 74
     1
176
     1
 91
        4
176
     1
 64
     7
176
     1
 65
   257
176
     1
 75
     1
176
     1
175
     1
176
     1
 42
1.0
176
     1
 92
        8
176
     1
 66
     8
424
  8421504
176
     1
 43
1.0
176
     1
 76
     1
176
     1
 77
     6
176
     1
 78
     2
176
     1
 67
     7
176
     1
 79
     5
176
     1
170
     0
176
     1
171
     0
176
     1
290
     0
176
     1
 93
        1
176
     1
 44
0.0
176
     1
173
     0
176
     1
  0
VISUALSTYLE
  5
34
102
{ACAD_REACTORS
330
2A
102
}
330
2A
100
AcDbVisualStyle
  2
Conceptual
 70
     9
177
     2
291
     0
 71
     3
176
     1
 72
     2
176
     1
 73
     0
176
     1
 90
        0
176
     1
 40
0.6
176
     1
 41
30.0
176
     1
 62
     5
 63
     7
421
 16777215
176
     1
 74
     2
176
     1
 91
        2
176
     1
 64
     7
176
     1
 65
   257
176
     1
 75
     1
176
     1
175
     1
176
     1
 42
179.0
176
     1
 92
        8
176
     1
 66
     7
176
     1
 43
1.0
176
     1
 76
     1
176
     1
 77
     6
176
     1
 78
     2
176
     1
 67
     7
176
     1
 79
     3
176
     1
170
     0
176
     1
171
     0
176
     1
290
     0
176
     1
 93
        1
176
     1
 44
0.0
176
     1
173
     0
176
     1
  0
VISUALSTYLE
  5
35
102
{ACAD_REACTORS
330
2A
102
}
330
2A
100
AcDbVisualStyle
  2
Dim
 70
    11
177
     2
291
     1
 71
     2
176
     1
 72
     2
176
     1
 73
     0
176
     1
 90
        0
176
     1
 40
0.6
176
     1
 41
30.0
176
     1
 62
     5
 63
     7
421
 16777215
176
     1
 74
     1
176
     1
 91
        4
176
     1
 64
     7
176
     1
 65
   257
176
     1
 75
     1
176
     1
175
     1
176
     1
 42
1.0
176
     1
 92
        8
176
     1
 66
     7
176
     1
 43
1.0
176
     1
 76
     1
176
     1
 77
     6
176
     1
 78
     2
176
     1
 67
     7
176
     1
 79
     5
176
     1
170
     0
176
     1
171
     0
176
     1
290
     0
176
     1
 93
        1
176
     1
 44
-50.0
176
     1
173
     0
176
     1
  0
VISUALSTYLE
  5
3D
102
{ACAD_REACTORS
330
2A
102
}
330
2A
100
AcDbVisualStyle
  2
EdgeColorOff
 70
    22
177
     2
291
     1
 71
     2
176
     0
 72
     2
176
     0
 73
     0
176
     0
 90
        0
176
     0
 40
0.6
176
     0
 41
30.0
176
     0
 62
     5
 63
     7
421
 16777215
176
     0
 74
     1
176
     0
 91
        4
176
     0
 64
     7
176
     0
 65
   257
176
     0
 75
     1
176
     0
175
     1
176
     0
 42
1.0
176
     0
 92
        8
176
     2
 66
     7
176
     0
 43
1.0
176
     0
 76
     1
176
     0
 77
     6
176
     0
 78
     2
176
     0
 67
     7
176
     0
 79
     5
176
     0
170
     0
176
     0
171
     0
176
     0
290
     0
176
     0
 93
        1
176
     0
 44
0.0
176
     0
173
     0
176
     0
  0
VISUALSTYLE
  5
39
102
{ACAD_REACTORS
330
2A
102
}
330
2A
100
AcDbVisualStyle
  2
Facepattern
 70
    15
177
     2
291
     1
 71
     2
176
     1
 72
     2
176
     1
 73
     0
176
     1
 90
        0
176
     1
 40
0.6
176
     1
 41
30.0
176
     1
 62
     5
 63
     7
421
 16777215
176
     1
 74
     1
176
     1
 91
        4
176
     1
 64
     7
176
     1
 65
   257
176
     1
 75
     1
176
     1
175
     1
176
     1
 42
1.0
176
     1
 92
        8
176
     1
 66
     7
176
     1
 43
1.0
176
     1
 76
     1
176
     1
 77
     6
176
     1
 78
     2
176
     1
 67
     7
176
     1
 79
     5
176
     1
170
     0
176
     1
171
     0
176
     1
290
     0
176
     1
 93
        1
176
     1
 44
0.0
176
     1
173
     0
176
     1
  0
VISUALSTYLE
  5
2B
102
{ACAD_REACTORS
330
2A
102
}
330
2A
100
AcDbVisualStyle
  2
Flat
 70
     0
177
     2
291
     1
 71
     2
176
     1
 72
     1
176
     1
 73
     1
176
     1
 90
        2
176
     1
 40
0.6
176
     1
 41
30.0
176
     1
 62
     5
 63
     7
421
 16777215
176
     1
 74
     0
176
     1
 91
        0
176
     1
 64
     7
176
     1
 65
   257
176
     1
 75
     1
176
     1
175
     1
176
     1
 42
1.0
176
     1
 92
        8
176
     1
 66
     7
176
     1
 43
1.0
176
     1
 76
     1
176
     1
 77
     6
176
     1
 78
     2
176
     1
 67
     7
176
     1
 79
     5
176
     1
170
     0
176
     1
171
     0
176
     1
290
     0
176
     1
 93
       13
176
     1
 44
0.0
176
     1
173
     0
176
     1
  0
VISUALSTYLE
  5
2C
102
{ACAD_REACTORS
330
2A
102
}
330
2A
100
AcDbVisualStyle
  2
FlatWithEdges
 70
     1
177
     2
291
     1
 71
     2
176
     1
 72
     1
176
     1
 73
     1
176
     1
 90
        2
176
     1
 40
0.6
176
     1
 41
30.0
176
     1
 62
     5
 63
     7
421
 16777215
176
     1
 74
     1
176
     1
 91
        0
176
     1
 64
     7
176
     1
 65
   257
176
     1
 75
     1
176
     1
175
     1
176
     1
 42
1.0
176
     1
 92
        0
176
     1
 66
   257
176
     1
 43
1.0
176
     1
 76
     1
176
     1
 77
     6
176
     1
 78
     2
176
     1
 67
     7
176
     1
 79
     5
176
     1
170
     0
176
     1
171
     0
176
     1
290
     0
176
     1
 93
       13
176
     1
 44
0.0
176
     1
173
     0
176
     1
  0
VISUALSTYLE
  5
2D
102
{ACAD_REACTORS
330
2A
102
}
330
2A
100
AcDbVisualStyle
  2
Gouraud
 70
     2
177
     2
291
     1
 71
     2
176
     1
 72
     2
176
     1
 73
     1
176
     1
 90
        2
176
     1
 40
0.6
176
     1
 41
30.0
176
     1
 62
     5
 63
     7
421
 16777215
176
     1
 74
     0
176
     1
 91
        0
176
     1
 64
     7
176
     1
 65
   257
176
     1
 75
     1
176
     1
175
     1
176
     1
 42
1.0
176
     1
 92
        0
176
     1
 66
     7
176
     1
 43
1.0
176
     1
 76
     1
176
     1
 77
     6
176
     1
 78
     2
176
     1
 67
     7
176
     1
 79
     5
176
     1
170
     0
176
     1
171
     0
176
     1
290
     0
176
     1
 93
       13
176
     1
 44
0.0
176
     1
173
     0
176
     1
  0
VISUALSTYLE
  5
2E
102
{ACAD_REACTORS
330
2A
102
}
330
2A
100
AcDbVisualStyle
  2
GouraudWithEdges
 70
     3
177
     2
291
     1
 71
     2
176
     1
 72
     2
176
     1
 73
     1
176
     1
 90
        2
176
     1
 40
0.6
176
     1
 41
30.0
176
     1
 62
     5
 63
     7
421
 16777215
176
     1
 74
     1
176
     1
 91
        0
176
     1
 64
     7
176
     1
 65
   257
176
     1
 75
     1
176
     1
175
     1
176
     1
 42
1.0
176
     1
 92
        0
176
     1
 66
   257
176
     1
 43
1.0
176
     1
 76
     1
176
     1
 77
     6
176
     1
 78
     2
176
     1
 67
     7
176
     1
 79
     5
176
     1
170
     0
176
     1
171
     0
176
     1
290
     0
176
     1
 93
       13
176
     1
 44
0.0
176
     1
173
     0
176
     1
  0
VISUALSTYLE
  5
31
102
{ACAD_REACTORS
330
2A
102
}
330
2A
100
AcDbVisualStyle
  2
Hidden
 70
     6
177
     2
291
     0
 71
     1
176
     1
 72
     2
176
     1
 73
     2
176
     1
 90
        0
176
     1
 40
0.6
176
     1
 41
30.0
176
     1
 62
     5
 63
     7
421
 16777215
176
     1
 74
     2
176
     1
 91
        2
176
     1
 64
     7
176
     1
 65
   257
176
     1
 75
     2
176
     1
175
     1
176
     1
 42
40.0
176
     1
 92
        0
176
     1
 66
   257
176
     1
 43
1.0
176
     1
 76
     1
176
     1
 77
     6
176
     1
 78
     2
176
     1
 67
     7
176
     1
 79
     3
176
     1
170
     0
176
     1
171
     0
176
     1
290
     0
176
     1
 93
        1
176
     1
 44
0.0
176
     1
173
     0
176
     1
  0
VISUALSTYLE
  5
3B
102
{ACAD_REACTORS
330
2A
102
}
330
2A
100
AcDbVisualStyle
  2
JitterOff
 70
    20
177
     2
291
     1
 71
     2
176
     0
 72
     2
176
     0
 73
     0
176
     0
 90
        0
176
     0
 40
0.6
176
     0
 41
30.0
176
     0
 62
     5
 63
     7
421
 16777215
176
     0
 74
     1
176
     0
 91
        4
176
     0
 64
     7
176
     0
 65
   257
176
     0
 75
     1
176
     0
175
     1
176
     0
 42
1.0
176
     0
 92
       10
176
     2
 66
     7
176
     0
 43
1.0
176
     0
 76
     1
176
     0
 77
     6
176
     0
 78
     2
176
     0
 67
     7
176
     0
 79
     5
176
     0
170
     0
176
     0
171
     0
176
     0
290
     0
176
     0
 93
        1
176
     0
 44
0.0
176
     0
173
     0
176
     0
  0
VISUALSTYLE
  5
38
102
{ACAD_REACTORS
330
2A
102
}
330
2A
100
AcDbVisualStyle
  2
Linepattern
 70
    14
177
     2
291
     1
 71
     2
176
     1
 72
     2
176
     1
 73
     0
176
     1
 90
        0
176
     1
 40
0.6
176
     1
 41
30.0
176
     1
 62
     5
 63
     7
421
 16777215
176
     1
 74
     1
176
     1
 91
        4
176
     1
 64
     7
176
     1
 65
   257
176
     1
 75
     7
176
     1
175
     7
176
     1
 42
1.0
176
     1
 92
        8
176
     1
 66
     7
176
     1
 43
1.0
176
     1
 76
     1
176
     1
 77
     6
176
     1
 78
     2
176
     1
 67
     7
176
     1
 79
     5
176
     1
170
     0
176
     1
171
     0
176
     1
290
     0
176
     1
 93
        1
176
     1
 44
0.0
176
     1
173
     0
176
     1
  0
VISUALSTYLE
  5
3C
102
{ACAD_REACTORS
330
2A
102
}
330
2A
100
AcDbVisualStyle
  2
OverhangOff
 70
    21
177
     2
291
     1
 71
     2
176
     0
 72
     2
176
     0
 73
     0
176
     0
 90
        0
176
     0
 40
0.6
176
     0
 41
30.0
176
     0
 62
     5
 63
     7
421
 16777215
176
     0
 74
     1
176
     0
 91
        4
176
     0
 64
     7
176
     0
 65
   257
176
     0
 75
     1
176
     0
175
     1
176
     0
 42
1.0
176
     0
 92
        9
176
     2
 66
     7
176
     0
 43
1.0
176
     0
 76
     1
176
     0
 77
     6
176
     0
 78
     2
176
     0
 67
     7
176
     0
 79
     5
176
     0
170
     0
176
     0
171
     0
176
     0
290
     0
176
     0
 93
        1
176
     0
 44
0.0
176
     0
173
     0
176
     0
  0
VISUALSTYLE
  5
33
102
{ACAD_REACTORS
330
2A
102
}
330
2A
100
AcDbVisualStyle
  2
Realistic
 70
     8
177
     2
291
     0
 71
     2
176
     1
 72
     3
176
     1
 73
     0
176
     1
 90
        2
176
     1
 40
0.6
176
     1
 41
30.0
176
     1
 62
     5
 63
     7
421
 16777215
176
     1
 74
     0
176
     1
 91
        0
176
     1
 64
     7
176
     1
 65
   257
176
     1
 75
     1
176
     1
175
     1
176
     1
 42
1.0
176
     1
 92
        8
176
     1
 66
   257
176
     1
 43
1.0
176
     1
 76
     1
176
     1
 77
     6
176
     1
 78
     2
176
     1
 67
     7
176
     1
 79
     3
176
     1
170
     0
176
     1
171
     0
176
     1
290
     0
176
     1
 93
       13
176
     1
 44
0.0
176
     1
173
     0
176
     1
  0
VISUALSTYLE
  5
42
102
{ACAD_REACTORS
330
2A
102
}
330
2A
100
AcDbVisualStyle
  2
Shaded
 70
    27
177
     2
291
     0
 71
     2
176
     1
 72
     2
176
     1
 73
     1
176
     1
 90
        2
176
     1
 40
0.6
176
     1
 41
30.0
176
     1
 62
     5
 63
     7
421
 16777215
176
     1
 74
     0
176
     1
 91
        4
176
     1
 64
     7
176
     1
 65
   257
176
     1
 75
     1
176
     1
175
     1
176
     1
 42
1.0
176
     1
 92
        8
176
     1
 66
   257
176
     1
 43
1.0
176
     1
 76
     1
176
     1
 77
     6
176
     1
 78
     2
176
     1
 67
     8
425
  7895160
176
     1
 79
     3
176
     1
170
     0
176
     1
171
     0
176
     1
290
     0
176
     1
 93
        5
176
     1
 44
0.0
176
     1
173
     0
176
     1
  0
VISUALSTYLE
  5
41
102
{ACAD_REACTORS
330
2A
102
}
330
2A
100
AcDbVisualStyle
  2
Shaded with edges
 70
    26
177
     2
291
     0
 71
     2
176
     1
 72
     2
176
     1
 73
     1
176
     1
 90
        2
176
     1
 40
0.6
176
     1
 41
30.0
176
     1
 62
     5
 63
     7
421
 16777215
176
     1
 74
     1
176
     1
 91
       10
176
     1
 64
     7
176
     1
 65
   257
176
     1
 75
     2
176
     1
175
     1
176
     1
 42
1.0
176
     1
 92
        8
176
     1
 66
   257
176
     1
 43
1.0
176
     1
 76
     1
176
     1
 77
     6
176
     1
 78
     2
176
     1
 67
     7
176
     1
 79
     3
176
     1
170
     0
176
     1
171
     0
176
     1
290
     0
176
     1
 93
        5
176
     1
 44
0.0
176
     1
173
     0
176
     1
  0
VISUALSTYLE
  5
3E
102
{ACAD_REACTORS
330
2A
102
}
330
2A
100
AcDbVisualStyle
  2
Shades of Gray
 70
    23
177
     2
291
     0
 71
     2
176
     1
 72
     2
176
     1
 73
     3
176
     1
 90
        0
176
     1
 40
0.6
176
     1
 41
30.0
176
     1
 62
     5
 63
     7
421
 16777215
176
     1
 74
     2
176
     1
 91
        2
176
     1
 64
     7
176
     1
 65
     7
176
     1
 75
     1
176
     1
175
     1
176
     1
 42
40.0
176
     1
 92
        8
176
     1
 66
     7
176
     1
 43
1.0
176
     1
 76
     1
176
     1
 77
     6
176
     1
 78
     2
176
     1
 67
     7
176
     1
 79
     3
176
     1
170
     0
176
     1
171
     0
176
     1
290
     0
176
     1
 93
        1
176
     1
 44
0.0
176
     1
173
     0
176
     1
  0
VISUALSTYLE
  5
3F
102
{ACAD_REACTORS
330
2A
102
}
330
2A
100
AcDbVisualStyle
  2
Sketchy
 70
    24
177
     2
291
     0
 71
     1
176
     1
 72
     2
176
     1
 73
     2
176
     1
 90
        0
176
     1
 40
0.6
176
     1
 41
30.0
176
     1
 62
     5
 63
     7
421
 16777215
176
     1
 74
     2
176
     1
 91
        2
176
     1
 64
     7
176
     1
 65
     7
176
     1
 75
     1
176
     1
175
     1
176
     1
 42
40.0
176
     1
 92
       11
176
     1
 66
     7
176
     1
 43
1.0
176
     1
 76
     1
176
     1
 77
     6
176
     1
 78
     2
176
     1
 67
     7
176
     1
 79
     6
176
     1
170
     0
176
     1
171
     0
176
     1
290
     0
176
     1
 93
        1
176
     1
 44
0.0
176
     1
173
     0
176
     1
  0
VISUALSTYLE
  5
37
102
{ACAD_REACTORS
330
2A
102
}
330
2A
100
AcDbVisualStyle
  2
Thicken
 70
    13
177
     2
291
     1
 71
     2
176
     1
 72
     2
176
     1
 73
     0
176
     1
 90
        0
176
     1
 40
0.6
176
     1
 41
30.0
176
     1
 62
     5
 63
     7
421
 16777215
176
     1
 74
     1
176
     1
 91
        4
176
     1
 64
     7
176
     1
 65
   257
176
     1
 75
     1
176
     1
175
     1
176
     1
 42
1.0
176
     1
 92
       12
176
     1
 66
     7
176
     1
 43
1.0
176
     1
 76
     1
176
     1
 77
     6
176
     1
 78
     2
176
     1
 67
     7
176
     1
 79
     5
176
     1
170
     0
176
     1
171
     0
176
     1
290
     0
176
     1
 93
        1
176
     1
 44
0.0
176
     1
173
     0
176
     1
  0
VISUALSTYLE
  5
30
102
{ACAD_REACTORS
330
2A
102
}
330
2A
100
AcDbVisualStyle
  2
Wireframe
 70
     5
177
     2
291
     0
 71
     0
176
     1
 72
     2
176
     1
 73
     0
176
     1
 90
        0
176
     1
 40
0.6
176
     1
 41
30.0
176
     1
 62
     5
 63
     7
421
 16777215
176
     1
 74
     1
176
     1
 91
        4
176
     1
 64
     7
176
     1
 65
   257
176
     1
 75
     1
176
     1
175
     1
176
     1
 42
1.0
176
     1
 92
        0
176
     1
 66
   257
176
     1
 43
1.0
176
     1
 76
     1
176
     1
 77
     6
176
     1
 78
     2
176
     1
 67
     7
176
     1
 79
     3
176
     1
170
     0
176
     1
171
     0
176
     1
290
     0
176
     1
 93
        1
176
     1
 44
0.0
176
     1
173
     0
176
     1
  0
VISUALSTYLE
  5
40
102
{ACAD_REACTORS
330
2A
102
}
330
2A
100
AcDbVisualStyle
  2
X-Ray
 70
    25
177
     2
291
     0
 71
     2
176
     1
 72
     2
176
     1
 73
     1
176
     1
 90
        1
176
     1
 40
0.5
176
     1
 41
30.0
176
     1
 62
     5
 63
     7
421
 16777215
176
     1
 74
     1
176
     1
 91
        0
176
     1
 64
     7
176
     1
 65
   257
176
     1
 75
     1
176
     1
175
     1
176
     1
 42
1.0
176
     1
 92
        8
176
     1
 66
     7
176
     1
 43
1.0
176
     1
 76
     1
176
     1
 77
     6
176
     1
 78
     2
176
     1
 67
     7
176
     1
 79
     3
176
     1
170
     0
176
     1
171
     0
176
     1
290
     0
176
     1
 93
       13
176
     1
 44
0.0
176
     1
173
     0
176
     1
  0
DICTIONARYVAR
  5
19E
102
{ACAD_REACTORS
330
19D
102
}
330
19D
100
DictionaryVariables
280
     0
  1
1:1
  0
ENDSEC
  0
EOF
