  0
SECTION
  2
HEADER
  9
$ACADVER
  1
AC1018
  9
$ACADMAINTVER
 70
     0
  9
$DWGCODEPAGE
  3
ANSI_1252
  9
$INSBASE
 10
0.0
 20
0.0
 30
0.0
  9
$EXTMIN
 10
0.0
 20
0.0
 30
0.0
  9
$EXTMAX
 10
78.7401574803
 20
39.3700787402
 30
0.0
  9
$LIMMIN
 10
0.0
 20
0.0
  9
$LIMMAX
 10
78.7401574803
 20
39.3700787402
  9
$ORTHOMODE
 70
     0
  9
$REGENMODE
 70
     1
  9
$FILLMODE
 70
     1
  9
$QTEXTMODE
 70
     0
  9
$MIRRTEXT
 70
     1
  9
$LTSCALE
 40
1.0
  9
$ATTMODE
 70
     1
  9
$TEXTSIZE
 40
0.1377952756
  9
$TRACEWID
 40
0.05
  9
$TEXTSTYLE
  7
STANDARD
  9
$CLAYER
  8
0
  9
$CELTYPE
  6
ByLayer
  9
$CECOLOR
 62
   256
  9
$CELTSCALE
 40
1.0
  9
$DISPSILH
 70
     0
  9
$DIMSCALE
 40
1.0
  9
$DIMASZ
 40
0.2362204724
  9
$DIMEXO
 40
0.0393700787
  9
$DIMDLI
 40
0.38
  9
$DIMRND
 40
0.0
  9
$DIMDLE
 40
0.0
  9
$DIMEXE
 40
0.0393700787
  9
$DIMTP
 40
0.0
  9
$DIMTM
 40
0.0
  9
$DIMTXT
 40
0.1377952756
  9
$DIMCEN
 40
0.09
  9
$DIMTSZ
 40
0.0
  9
$DIMTOL
 70
     0
  9
$DIMLIM
 70
     0
  9
$DIMTIH
 70
     1
  9
$DIMTOH
 70
     1
  9
$DIMSE1
 70
     0
  9
$DIMSE2
 70
     0
  9
$DIMTAD
 70
     1
  9
$DIMZIN
 70
     0
  9
$DIMBLK
  1

  9
$DIMASO
 70
     1
  9
$DIMSHO
 70
     1
  9
$DIMPOST
  1

  9
$DIMAPOST
  1

  9
$DIMALT
 70
     0
  9
$DIMALTD
 70
     2
  9
$DIMALTF
 40
25.4
  9
$DIMLFAC
 40
1.0
  9
$DIMTOFL
 70
     0
  9
$DIMTVP
 40
0.0
  9
$DIMTIX
 70
     0
  9
$DIMSOXD
 70
     0
  9
$DIMSAH
 70
     0
  9
$DIMBLK1
  1

  9
$DIMBLK2
  1

  9
$DIMSTYLE
  2
Standard
  9
$DIMCLRD
 70
     0
  9
$DIMCLRE
 70
     0
  9
$DIMCLRT
 70
     0
  9
$DIMTFAC
 40
1.0
  9
$DIMGAP
 40
0.06
  9
$DIMJUST
 70
     0
  9
$DIMSD1
 70
     0
  9
$DIMSD2
 70
     0
  9
$DIMTOLJ
 70
     1
  9
$DIMTZIN
 70
     0
  9
$DIMALTZ
 70
     0
  9
$DIMALTTZ
 70
     0
  9
$DIMUPT
 70
     0
  9
$DIMDEC
 70
     3
  9
$DIMTDEC
 70
     3
  9
$DIMALTU
 70
     2
  9
$DIMALTTD
 70
     2
  9
$DIMTXSTY
  7
STANDARD
  9
$DIMAUNIT
 70
     0
  9
$DIMADEC
 70
     2
  9
$DIMALTRND
 40
0.0
  9
$DIMAZIN
 70
     0
  9
$DIMDSEP
 70
    46
  9
$DIMATFIT
 70
     3
  9
$DIMFRAC
 70
     0
  9
$DIMLDRBLK
  1

  9
$DIMLUNIT
 70
     2
  9
$DIMLWD
 70
    -2
  9
$DIMLWE
 70
    -2
  9
$DIMTMOVE
 70
     0
  9
$LUNITS
 70
     2
  9
$LUPREC
 70
     2
  9
$SKETCHINC
 40
0.1
  9
$FILLETRAD
 40
0.5
  9
$AUNITS
 70
     0
  9
$AUPREC
 70
     2
  9
$MENU
  1
.
  9
$ELEVATION
 40
0.0
  9
$PELEVATION
 40
0.0
  9
$THICKNESS
 40
0.0
  9
$LIMCHECK
 70
     0
  9
$CHAMFERA
 40
0.0
  9
$CHAMFERB
 40
0.0
  9
$CHAMFERC
 40
0.0
  9
$CHAMFERD
 40
0.0
  9
$SKPOLY
 70
     0
  9
$TDCREATE
 40
2457707.53217985
  9
$TDUCREATE
 40
2457707.78217985
  9
$TDUPDATE
 40
2457707.532180324
  9
$TDUUPDATE
 40
2457707.782180324
  9
$TDINDWG
 40
0.0000000116
  9
$TDUSRTIMER
 40
0.0000000116
  9
$USRTIMER
 70
     1
  9
$ANGBASE
 50
0.0
  9
$ANGDIR
 70
     0
  9
$PDMODE
 70
     0
  9
$PDSIZE
 40
-1.0
  9
$PLINEWID
 40
0.0
  9
$SPLFRAME
 70
     0
  9
$SPLINETYPE
 70
     6
  9
$SPLINESEGS
 70
     8
  9
$HANDSEED
  5
A7
  9
$SURFTAB1
 70
     6
  9
$SURFTAB2
 70
     6
  9
$SURFTYPE
 70
     6
  9
$SURFU
 70
     6
  9
$SURFV
 70
     6
  9
$UCSBASE
  2

  9
$UCSNAME
  2

  9
$UCSORG
 10
0.0
 20
0.0
 30
0.0
  9
$UCSXDIR
 10
1.0
 20
0.0
 30
0.0
  9
$UCSYDIR
 10
0.0
 20
1.0
 30
0.0
  9
$UCSORTHOREF
  2

  9
$UCSORTHOVIEW
 70
     0
  9
$UCSORGTOP
 10
0.0
 20
0.0
 30
0.0
  9
$UCSORGBOTTOM
 10
0.0
 20
0.0
 30
0.0
  9
$UCSORGLEFT
 10
0.0
 20
0.0
 30
0.0
  9
$UCSORGRIGHT
 10
0.0
 20
0.0
 30
0.0
  9
$UCSORGFRONT
 10
0.0
 20
0.0
 30
0.0
  9
$UCSORGBACK
 10
0.0
 20
0.0
 30
0.0
  9
$PUCSBASE
  2

  9
$PUCSNAME
  2

  9
$PUCSORG
 10
0.0
 20
0.0
 30
0.0
  9
$PUCSXDIR
 10
1.0
 20
0.0
 30
0.0
  9
$PUCSYDIR
 10
0.0
 20
1.0
 30
0.0
  9
$PUCSORTHOREF
  2

  9
$PUCSORTHOVIEW
 70
     0
  9
$PUCSORGTOP
 10
0.0
 20
0.0
 30
0.0
  9
$PUCSORGBOTTOM
 10
0.0
 20
0.0
 30
0.0
  9
$PUCSORGLEFT
 10
0.0
 20
0.0
 30
0.0
  9
$PUCSORGRIGHT
 10
0.0
 20
0.0
 30
0.0
  9
$PUCSORGFRONT
 10
0.0
 20
0.0
 30
0.0
  9
$PUCSORGBACK
 10
0.0
 20
0.0
 30
0.0
  9
$USERI1
 70
     0
  9
$USERI2
 70
     0
  9
$USERI3
 70
     0
  9
$USERI4
 70
     0
  9
$USERI5
 70
     0
  9
$USERR1
 40
0.0
  9
$USERR2
 40
0.0
  9
$USERR3
 40
0.0
  9
$USERR4
 40
0.0
  9
$USERR5
 40
0.0
  9
$WORLDVIEW
 70
     1
  9
$SHADEDGE
 70
     3
  9
$SHADEDIF
 70
    70
  9
$TILEMODE
 70
     1
  9
$MAXACTVP
 70
    64
  9
$PINSBASE
 10
0.0
 20
0.0
 30
0.0
  9
$PLIMCHECK
 70
     0
  9
$PEXTMIN
 10
1.0000000000E+20
 20
1.0000000000E+20
 30
1.0000000000E+20
  9
$PEXTMAX
 10
-1.0000000000E+20
 20
-1.0000000000E+20
 30
-1.0000000000E+20
  9
$PLIMMIN
 10
0.0
 20
0.0
  9
$PLIMMAX
 10
12.0
 20
9.0
  9
$UNITMODE
 70
     0
  9
$VISRETAIN
 70
     1
  9
$PLINEGEN
 70
     0
  9
$PSLTSCALE
 70
     1
  9
$TREEDEPTH
 70
  3020
  9
$CMLSTYLE
  2
Standard
  9
$CMLJUST
 70
     0
  9
$CMLSCALE
 40
1.0
  9
$PROXYGRAPHICS
 70
     1
  9
$MEASUREMENT
 70
     0
  9
$CELWEIGHT
370
    -1
  9
$ENDCAPS
280
     0
  9
$JOINSTYLE
280
     0
  9
$LWDISPLAY
290
     1
  9
$INSUNITS
 70
     1
  9
$HYPERLINKBASE
  1

  9
$STYLESHEET
  1

  9
$XEDIT
290
     1
  9
$CEPSNTYPE
380
     0
  9
$PSTYLEMODE
290
     1
  9
$FINGERPRINTGUID
  2
{2CE32D2B-674A-4953-84D1-5920B1D3AEED}
  9
$VERSIONGUID
  2
{FAEB1C32-E019-11D5-929B-00C0DF256EC4}
  9
$EXTNAMES
290
     1
  9
$PSVPSCALE
 40
0.0
  9
$OLESTARTUP
290
     0
  9
$SORTENTS
280
   127
  9
$INDEXCTL
280
     0
  9
$HIDETEXT
280
     1
  9
$XCLIPFRAME
290
     0
  9
$HALOGAP
280
     0
  9
$OBSCOLOR
 70
   257
  9
$OBSLTYPE
280
     0
  9
$INTERSECTIONDISPLAY
280
     0
  9
$INTERSECTIONCOLOR
 70
   257
  9
$DIMASSOC
280
     2
  9
$PROJECTNAME
  1

  0
ENDSEC
  0
SECTION
  2
CLASSES
  0
CLASS
  1
ACDBDICTIONARYWDFLT
  2
AcDbDictionaryWithDefault
  3
ObjectDBX Classes
 90
        0
 91
        4
280
     0
281
     0
  0
CLASS
  1
VISUALSTYLE
  2
AcDbVisualStyle
  3
ObjectDBX Classes
 90
     4095
 91
        4
280
     0
281
     0
  0
CLASS
  1
MATERIAL
  2
AcDbMaterial
  3
ObjectDBX Classes
 90
     1153
 91
        4
280
     0
281
     0
  0
CLASS
  1
SCALE
  2
AcDbScale
  3
ObjectDBX Classes
 90
     1153
 91
        4
280
     0
281
     0
  0
CLASS
  1
SUN
  2
AcDbSun
  3
SCENEOE
 90
     1153
 91
        4
280
     0
281
     0
  0
CLASS
  1
DICTIONARYVAR
  2
AcDbDictionaryVar
  3
ObjectDBX Classes
 90
        0
 91
        4
280
     0
281
     0
  0
ENDSEC
  0
SECTION
  2
TABLES
  0
TABLE
  2
VPORT
  5
8
330
0
100
AcDbSymbolTable
 70
     1
  0
VPORT
  5
29
330
8
100
AcDbSymbolTableRecord
100
AcDbViewportTableRecord
  2
*Active
 70
     0
 10
0.0
 20
0.0
 11
1.0
 21
1.0
 12
39.3700787402
 22
19.6850393701
 13
0.0
 23
0.0
 14
0.5
 24
0.5
 15
0.5
 25
0.5
 16
0.0
 26
0.0
 36
1.0
 17
0.0
 27
0.0
 37
0.0
 40
39.3700787402
 41
2.0
 42
50.0
 43
0.0
 44
0.0
 50
0.0
 51
0.0
 71
     0
 72
  2000
 73
     1
 74
     3
 75
     0
 76
     0
 77
     0
 78
     0
281
     0
 65
     1
110
0.0
120
0.0
130
0.0
111
1.0
121
0.0
131
0.0
112
0.0
122
1.0
132
0.0
 79
     0
146
0.0
  0
ENDTAB
  0
TABLE
  2
LTYPE
  5
5
330
0
100
AcDbSymbolTable
 70
     6
  0
LTYPE
  5
14
330
5
100
AcDbSymbolTableRecord
100
AcDbLinetypeTableRecord
  2
ByBlock
 70
     0
  3

 72
    65
 73
     0
 40
0.0
  0
LTYPE
  5
15
330
5
100
AcDbSymbolTableRecord
100
AcDbLinetypeTableRecord
  2
ByLayer
 70
     0
  3

 72
    65
 73
     0
 40
0.0
  0
LTYPE
  5
16
330
5
100
AcDbSymbolTableRecord
100
AcDbLinetypeTableRecord
  2
Continuous
 70
     0
  3
Solid line
 72
    65
 73
     0
 40
0.0
  0
LTYPE
  5
6A
330
5
100
AcDbSymbolTableRecord
100
AcDbLinetypeTableRecord
  2
HIDDEN
 70
     0
  3
Hidden __ __ __ __ __ __ __ __ __ __ __ __ __ __
 72
    65
 73
     2
 40
0.075
 49
0.05
 74
     0
 49
-0.025
 74
     0
  0
LTYPE
  5
6B
330
5
100
AcDbSymbolTableRecord
100
AcDbLinetypeTableRecord
  2
PHANTOM
 70
     0
  3
Phantom ______  __  __  ______  __  __  ______
 72
    65
 73
     6
 40
0.5
 49
0.25
 74
     0
 49
-0.05
 74
     0
 49
0.05
 74
     0
 49
-0.05
 74
     0
 49
0.05
 74
     0
 49
-0.05
 74
     0
  0
LTYPE
  5
6C
330
5
100
AcDbSymbolTableRecord
100
AcDbLinetypeTableRecord
  2
CENTER
 70
     0
  3
Center ____ _ ____ _ ____ _ ____ _ ____ _ ____
 72
    65
 73
     4
 40
0.4
 49
0.25
 74
     0
 49
-0.05
 74
     0
 49
0.05
 74
     0
 49
-0.05
 74
     0
  0
LTYPE
  5
6D
330
5
100
AcDbSymbolTableRecord
100
AcDbLinetypeTableRecord
  2
CENTERX2
 70
     0
  3
Center (2x) ________  __  ________  __  _____
 72
    65
 73
     4
 40
0.8
 49
0.5
 74
     0
 49
-0.1
 74
     0
 49
0.1
 74
     0
 49
-0.1
 74
     0
  0
LTYPE
  5
6E
330
5
100
AcDbSymbolTableRecord
100
AcDbLinetypeTableRecord
  2
DOT2
 70
     0
  3
Dot (.5x) ........................................
 72
    65
 73
     2
 40
0.025
 49
0.0
 74
     0
 49
-0.025
 74
     0
  0
ENDTAB
  0
TABLE
  2
LAYER
  5
2
330
0
100
AcDbSymbolTable
 70
     1
  0
LAYER
  5
10
330
2
100
AcDbSymbolTableRecord
100
AcDbLayerTableRecord
  2
0
 70
     0
 62
     7
  6
Continuous
370
    -3
390
F
  0
ENDTAB
  0
TABLE
  2
STYLE
  5
3
330
0
100
AcDbSymbolTable
 70
     1
  0
STYLE
  5
11
330
3
100
AcDbSymbolTableRecord
100
AcDbTextStyleTableRecord
  2
STANDARD
 70
     0
 40
0.0
 41
1.0
 50
0.0
 71
     0
 42
0.1377952756
  3
GOTHIC.TTF
  4

1001
ACAD
1000
CENTURY GOTHIC
1071
       34
  0
ENDTAB
  0
TABLE
  2
VIEW
  5
6
330
0
100
AcDbSymbolTable
 70
     0
  0
ENDTAB
  0
TABLE
  2
UCS
  5
7
330
0
100
AcDbSymbolTable
 70
     0
  0
ENDTAB
  0
TABLE
  2
APPID
  5
9
330
0
100
AcDbSymbolTable
 70
     1
  0
APPID
  5
12
330
9
100
AcDbSymbolTableRecord
100
AcDbRegAppTableRecord
  2
ACAD
 70
     0
  0
ENDTAB
  0
TABLE
  2
DIMSTYLE
  5
A
330
0
100
AcDbSymbolTable
 70
     1
100
AcDbDimStyleTable
  0
DIMSTYLE
105
27
330
A
100
AcDbSymbolTableRecord
100
AcDbDimStyleTableRecord
  2
Standard
 70
     0
178
     0
340
11
  0
ENDTAB
  0
TABLE
  2
BLOCK_RECORD
  5
1
330
0
100
AcDbSymbolTable
 70
     1
  0
BLOCK_RECORD
  5
1F
330
1
100
AcDbSymbolTableRecord
100
AcDbBlockTableRecord
  2
*Model_Space
340
22
  0
BLOCK_RECORD
  5
1B
330
1
100
AcDbSymbolTableRecord
100
AcDbBlockTableRecord
  2
*Paper_Space
340
1E
  0
BLOCK_RECORD
  5
23
330
1
100
AcDbSymbolTableRecord
100
AcDbBlockTableRecord
  2
*Paper_Space0
340
26
  0
ENDTAB
  0
ENDSEC
  0
SECTION
  2
BLOCKS
  0
BLOCK
  5
20
330
1F
100
AcDbEntity
  8
0
100
AcDbBlockBegin
  2
*Model_Space
 70
     0
 10
0.0
 20
0.0
 30
0.0
  3
*Model_Space
  1
*Model_Space
  0
ENDBLK
  5
21
330
1F
100
AcDbEntity
  8
0
100
AcDbBlockEnd
  0
BLOCK
  5
1C
330
1B
100
AcDbEntity
 67
     1
  8
0
100
AcDbBlockBegin
  2
*Paper_Space
 70
     0
 10
0.0
 20
0.0
 30
0.0
  3
*Paper_Space
  1
*Paper_Space
  0
ENDBLK
  5
1D
330
1B
100
AcDbEntity
 67
     1
  8
0
100
AcDbBlockEnd
  0
BLOCK
  5
24
330
23
100
AcDbEntity
  8
0
100
AcDbBlockBegin
  2
*Paper_Space0
 70
     0
 10
0.0
 20
0.0
 30
0.0
  3
*Paper_Space0
  1
*Paper_Space0
  0
ENDBLK
  5
25
330
23
100
AcDbEntity
  8
0
100
AcDbBlockEnd
  0
ENDSEC
  0
SECTION
  2
ENTITIES
  0
LINE
  5
6F
330
1F
100
AcDbEntity
  8
0
  6
Continuous
 62
     7
100
AcDbLine
 10
38.6954191867
 20
15.2570828103
 30
0.0
 11
38.6954191867
 21
14.8820828103
 31
0.0
  0
LINE
  5
70
330
1F
100
AcDbEntity
  8
0
  6
Continuous
 62
     7
100
AcDbLine
 10
38.6954191867
 20
14.8820828103
 30
0.0
 11
38.9454191867
 21
14.8820828103
 31
0.0
  0
LINE
  5
71
330
1F
100
AcDbEntity
  8
0
  6
Continuous
 62
     7
100
AcDbLine
 10
38.9454191867
 20
14.8820828103
 30
0.0
 11
38.9454191867
 21
14.5070828103
 31
0.0
  0
LINE
  5
72
330
1F
100
AcDbEntity
  8
0
  6
CENTERX2
 62
     7
100
AcDbLine
 10
38.8204191867
 20
14.4677127316
 30
0.0
 11
38.8204191867
 21
14.8820828103
 31
0.0
  0
ARC
  5
73
330
1F
100
AcDbEntity
  8
0
  6
Continuous
 62
     7
370
    15
100
AcDbCircle
 10
44.4067823389
 20
14.7177127316
 30
0.0
 40
0.2500000000000001
100
AcDbArc
 50
270.0
 51
8.3861826301
  0
ARC
  5
74
330
1F
100
AcDbEntity
  8
0
  6
Continuous
 62
     7
370
    15
100
AcDbCircle
 10
33.2340560345
 20
14.7177127316
 30
0.0
 40
0.2500000000000001
100
AcDbArc
 50
171.6138173699
 51
270.0
  0
ARC
  5
75
330
1F
100
AcDbEntity
  8
0
  6
Continuous
 62
     7
370
    15
100
AcDbCircle
 10
78.4948756864
 20
8.0453290165
 30
0.0
 40
45.99999999999999
100
AcDbArc
 50
161.0357883599
 51
171.6138173699
  0
ARC
  5
76
330
1F
100
AcDbEntity
  8
0
  6
Continuous
 62
     7
370
    15
100
AcDbCircle
 10
78.4948756864
 20
8.0453290165
 30
0.0
 40
46.0
100
AcDbArc
 50
159.8813800122
 51
160.7091130203
  0
ARC
  5
77
330
1F
100
AcDbEntity
  8
0
  6
Continuous
 62
     7
370
    15
100
AcDbCircle
 10
-0.854037313
 20
8.0453290165
 30
0.0
 40
46.0
100
AcDbArc
 50
8.3861826301
 51
20.1186199878
  0
LINE
  5
78
330
1F
100
AcDbEntity
  8
0
  6
Continuous
 62
     7
370
    15
100
AcDbLine
 10
44.4067823389
 20
14.4677127316
 30
0.0
 11
33.2340560345
 21
14.4677127316
 31
0.0
  0
LINE
  5
79
330
1F
100
AcDbEntity
  8
0
  6
Continuous
 62
     7
370
    15
100
AcDbLine
 10
42.3391586046
 20
23.8677127316
 30
0.0
 11
35.3016797688
 21
23.8677127316
 31
0.0
  0
SPLINE
  5
7A
330
1F
100
AcDbEntity
  8
0
  6
Continuous
 62
     7
370
    15
100
AcDbSpline
210
0.0
220
0.0
230
1.0
 70
     8
 71
     3
 72
    17
 73
    13
 74
     0
 42
0.000000001
 43
0.00000001
 40
0.0
 40
0.0
 40
0.0
 40
0.0
 40
0.0419287294971627
 40
0.1397444374507743
 40
0.2392264662398676
 40
0.3437928192091971
 40
0.4547072605564815
 40
0.5704320939225647
 40
0.687042432912031
 40
0.8002602475139345
 40
0.9078580805407379
 40
1.0
 40
1.0
 40
1.0
 40
1.0
 10
34.99172271281607
 20
22.99428380154336
 30
0.0
 10
34.99158077034718
 20
22.9939062353704
 30
0.0
 10
34.9911076897005
 20
22.99264784349751
 30
0.0
 10
34.99533195190794
 20
23.00388245634655
 30
0.0
 10
35.00368220309608
 20
23.02633930514906
 30
0.0
 10
35.01581232301938
 20
23.05953656292183
 30
0.0
 10
35.0303170045315
 20
23.10022934566026
 30
0.0
 10
35.04563857636293
 20
23.14451233376245
 30
0.0
 10
35.05966698338145
 20
23.18638490669334
 30
0.0
 10
35.07031184950385
 20
23.21907969382542
 30
0.0
 10
35.07679591103076
 20
23.23942734057883
 30
0.0
 10
35.0773714443633
 20
23.2412510162117
 30
0.0
 10
35.07763694357071
 20
23.24209229578271
 30
0.0
  0
SPLINE
  5
7B
330
1F
100
AcDbEntity
  8
0
  6
Continuous
 62
     7
370
    15
100
AcDbSpline
210
0.0
220
0.0
230
1.0
 70
    11
 71
     3
 72
    68
 73
    64
 74
     0
 42
0.000000001
 43
0.00000001
 40
0.0
 40
0.0
 40
0.0
 40
0.0
 40
0.0312500000000004
 40
0.0312500000000004
 40
0.0625000000000007
 40
0.0625000000000007
 40
0.0937500000000011
 40
0.0937500000000011
 40
0.1250000000000015
 40
0.1250000000000015
 40
0.187500000000002
 40
0.187500000000002
 40
0.2187500000000019
 40
0.2187500000000019
 40
0.2500000000000018
 40
0.2500000000000018
 40
0.2812500000000018
 40
0.2812500000000018
 40
0.3125000000000017
 40
0.3125000000000017
 40
0.3437500000000016
 40
0.3437500000000016
 40
0.3750000000000015
 40
0.3750000000000015
 40
0.4062500000000014
 40
0.4062500000000014
 40
0.4375000000000014
 40
0.4375000000000014
 40
0.4687500000000013
 40
0.4687500000000013
 40
0.5000000000000012
 40
0.5000000000000012
 40
0.5312500000000011
 40
0.5312500000000011
 40
0.5625000000000011
 40
0.5625000000000011
 40
0.593750000000001
 40
0.593750000000001
 40
0.6250000000000009
 40
0.6250000000000009
 40
0.6562500000000009
 40
0.6562500000000009
 40
0.6875000000000008
 40
0.6875000000000008
 40
0.7187500000000007
 40
0.7187500000000007
 40
0.7500000000000006
 40
0.7500000000000006
 40
0.7812500000000006
 40
0.7812500000000006
 40
0.8125000000000004
 40
0.8125000000000004
 40
0.8437500000000003
 40
0.8437500000000003
 40
0.8750000000000003
 40
0.8750000000000003
 40
0.9062500000000002
 40
0.9062500000000002
 40
0.9375000000000001
 40
0.9375000000000001
 40
0.9687500000000001
 40
0.9687500000000001
 40
1.0
 40
1.0
 40
1.0
 40
1.0
 10
40.65828909731934
 20
23.2362124465294
 30
0.0
 10
40.65177023698221
 20
23.2335191059116
 30
0.0
 10
40.64575346520099
 20
23.23007678440822
 30
0.0
 10
40.63466718571069
 20
23.22178990555371
 30
0.0
 10
40.62955085056406
 20
23.21687743680363
 30
0.0
 10
40.62062047576968
 20
23.20597217308999
 30
0.0
 10
40.61678686018676
 20
23.19999481717829
 30
0.0
 10
40.61035310408666
 20
23.18702468368838
 30
0.0
 10
40.60777336702571
 20
23.18002555870448
 30
0.0
 10
40.60217974798019
 20
23.15837723219823
 30
0.0
 10
40.60118940098183
 20
23.14255454082167
 30
0.0
 10
40.60379114874706
 20
23.11883655694519
 30
0.0
 10
40.60534127930323
 20
23.11082117019238
 30
0.0
 10
40.60976034151329
 20
23.09496341282656
 30
0.0
 10
40.61259041072425
 20
23.08722072654614
 30
0.0
 10
40.61946728856413
 20
23.0720994241465
 30
0.0
 10
40.62356672481855
 20
23.06464605476418
 30
0.0
 10
40.63280095597047
 20
23.05056028901281
 30
0.0
 10
40.6379112577071
 20
23.04393391475023
 30
0.0
 10
40.64912952332989
 20
23.03152436078038
 30
0.0
 10
40.65531339353976
 20
23.02569087648972
 30
0.0
 10
40.66823451723134
 20
23.01539589012795
 30
0.0
 10
40.6749985907834
 20
23.01088272062821
 30
0.0
 10
40.68915419427382
 20
23.00317545634091
 30
0.0
 10
40.69656397789855
 20
23.00000024569496
 30
0.0
 10
40.71130032578158
 20
22.99534972924381
 30
0.0
 10
40.71871603053953
 20
22.99381790954233
 30
0.0
 10
40.73364591748169
 20
22.99243569423974
 30
0.0
 10
40.74090370551723
 20
22.99261239505437
 30
0.0
 10
40.75494000016071
 20
22.99463065866369
 30
0.0
 10
40.76180530568253
 20
22.9965112714557
 30
0.0
 10
40.77455009100223
 20
23.00181529137814
 30
0.0
 10
40.78046692654298
 20
23.00522178002279
 30
0.0
 10
40.79141038497406
 20
23.01352030499299
 30
0.0
 10
40.79635628921547
 20
23.01837117199808
 30
0.0
 10
40.80499180421522
 20
23.02913163133311
 30
0.0
 10
40.80875568641262
 20
23.0351360786519
 30
0.0
 10
40.81497151024313
 20
23.04801490304639
 30
0.0
 10
40.8174098170971
 20
23.05482448049361
 30
0.0
 10
40.821009823859
 20
23.06915599552229
 30
0.0
 10
40.82216494749454
 20
23.07673857877999
 30
0.0
 10
40.82311512503448
 20
23.09206985193877
 30
0.0
 10
40.82293326951169
 20
23.09987195976097
 30
0.0
 10
40.82125216130355
 20
23.11575175448143
 30
0.0
 10
40.81973820128274
 20
23.12381396078012
 30
0.0
 10
40.81549170476686
 20
23.1395809746813
 30
0.0
 10
40.81275396520881
 20
23.14736642121066
 30
0.0
 10
40.80599258902006
 20
23.16273091316339
 30
0.0
 10
40.80200370836402
 20
23.1702027580155
 30
0.0
 10
40.79302303216738
 20
23.18433164171254
 30
0.0
 10
40.78800522879421
 20
23.19105175342893
 30
0.0
 10
40.77682799914923
 20
23.20374665196392
 30
0.0
 10
40.77084478254757
 20
23.20951768640913
 30
0.0
 10
40.75814682263086
 20
23.21986888017877
 30
0.0
 10
40.75135113501613
 20
23.22449748708615
 30
0.0
 10
40.73728187554134
 20
23.23227273199926
 30
0.0
 10
40.73010148051614
 20
23.23538694240646
 30
0.0
 10
40.71544441303442
 20
23.24006596980513
 30
0.0
 10
40.70789663648137
 20
23.24162287282122
 30
0.0
 10
40.69317821954178
 20
23.24298259593518
 30
0.0
 10
40.6859366163874
 20
23.24282289312114
 30
0.0
 10
40.67169485920148
 20
23.24078207762407
 30
0.0
 10
40.66480795765646
 20
23.23890578714719
 30
0.0
 10
40.65828909731933
 20
23.2362124465294
 30
0.0
  0
SPLINE
  5
7C
330
1F
100
AcDbEntity
  8
0
  6
Continuous
 62
     7
370
    15
100
AcDbSpline
210
0.0
220
0.0
230
1.0
 70
     8
 71
     3
 72
    18
 73
    14
 74
     0
 42
0.000000001
 43
0.00000001
 40
0.0
 40
0.0
 40
0.0
 40
0.0
 40
0.007869108620347
 40
0.106120114231118
 40
0.2045391202495004
 40
0.3070810194472184
 40
0.4158523427945793
 40
0.5302971463461653
 40
0.6471419923345912
 40
0.7619170847696616
 40
0.8714995756797442
 40
0.975554083773798
 40
1.0
 40
1.0
 40
1.0
 40
1.0
 10
40.71421530963667
 20
22.99319479382426
 30
0.0
 10
40.71514843027493
 20
22.99303621012401
 30
0.0
 10
40.72773217685918
 20
22.99089760444493
 30
0.0
 10
40.75021232417601
 20
22.99891149389616
 30
0.0
 10
40.77721929661911
 20
23.01712254688854
 30
0.0
 10
40.79583056529253
 20
23.04722667908522
 30
0.0
 10
40.8040203210254
 20
23.08557885606882
 30
0.0
 10
40.79963117726688
 20
23.12930727453372
 30
0.0
 10
40.78204495476477
 20
23.17262702270363
 30
0.0
 10
40.75312023687619
 20
23.2095348832344
 30
0.0
 10
40.71752785049039
 20
23.23331467217021
 30
0.0
 10
40.68847649560414
 20
23.24377513781996
 30
0.0
 10
40.67390513163642
 20
23.24186784613112
 30
0.0
 10
40.67113307586508
 20
23.24150500302697
 30
0.0
  0
LINE
  5
7D
330
1F
100
AcDbEntity
  8
0
  6
Continuous
 62
     8
370
    15
100
AcDbLine
 10
32.9867291512
 20
14.7541738448
 30
0.0
 11
44.6541092223
 21
14.7541738448
 31
0.0
  0
ARC
  5
7E
330
1F
100
AcDbEntity
  8
0
  6
Continuous
 62
     7
370
    15
100
AcDbCircle
 10
21.2564152652
 20
14.7177127316
 30
0.0
 40
0.2500000000000036
100
AcDbArc
 50
270.0
 51
8.3861826301
  0
ARC
  5
7F
330
1F
100
AcDbEntity
  8
0
  6
Continuous
 62
     7
370
    15
100
AcDbCircle
 10
10.0836889609
 20
14.7177127316
 30
0.0
 40
0.2500000000000001
100
AcDbArc
 50
171.6138173699
 51
270.0
  0
ARC
  5
80
330
1F
100
AcDbEntity
  8
0
  6
Continuous
 62
     7
370
    15
100
AcDbCircle
 10
55.3445086127
 20
8.0453290165
 30
0.0
 40
46.0
100
AcDbArc
 50
159.8813800122
 51
171.6138173699
  0
ARC
  5
81
330
1F
100
AcDbEntity
  8
0
  6
Continuous
 62
     7
370
    15
100
AcDbCircle
 10
-24.0044043866
 20
8.0453290165
 30
0.0
 40
46.0
100
AcDbArc
 50
8.3861826301
 51
20.1186199878
  0
LINE
  5
82
330
1F
100
AcDbEntity
  8
0
  6
Continuous
 62
     7
370
    15
100
AcDbLine
 10
21.2564152652
 20
14.4677127316
 30
0.0
 11
10.0836889609
 21
14.4677127316
 31
0.0
  0
LINE
  5
83
330
1F
100
AcDbEntity
  8
0
  6
Continuous
 62
     7
370
    15
100
AcDbLine
 10
19.1887915309
 20
23.8677127316
 30
0.0
 11
12.1513126952
 21
23.8677127316
 31
0.0
  0
SPLINE
  5
84
330
1F
100
AcDbEntity
  8
0
  6
Continuous
 62
     7
370
    15
100
AcDbSpline
210
0.0
220
0.0
230
1.0
 70
    11
 71
     3
 72
    68
 73
    64
 74
     0
 42
0.000000001
 43
0.00000001
 40
0.0
 40
0.0
 40
0.0
 40
0.0
 40
0.0312500000000004
 40
0.0312500000000004
 40
0.0625000000000007
 40
0.0625000000000007
 40
0.0937500000000011
 40
0.0937500000000011
 40
0.1250000000000015
 40
0.1250000000000015
 40
0.187500000000002
 40
0.187500000000002
 40
0.2187500000000019
 40
0.2187500000000019
 40
0.2500000000000018
 40
0.2500000000000018
 40
0.2812500000000018
 40
0.2812500000000018
 40
0.3125000000000017
 40
0.3125000000000017
 40
0.3437500000000016
 40
0.3437500000000016
 40
0.3750000000000015
 40
0.3750000000000015
 40
0.4062500000000014
 40
0.4062500000000014
 40
0.4375000000000014
 40
0.4375000000000014
 40
0.4687500000000013
 40
0.4687500000000013
 40
0.5000000000000012
 40
0.5000000000000012
 40
0.5312500000000011
 40
0.5312500000000011
 40
0.5625000000000011
 40
0.5625000000000011
 40
0.593750000000001
 40
0.593750000000001
 40
0.6250000000000009
 40
0.6250000000000009
 40
0.6562500000000009
 40
0.6562500000000009
 40
0.6875000000000008
 40
0.6875000000000008
 40
0.7187500000000007
 40
0.7187500000000007
 40
0.7500000000000006
 40
0.7500000000000006
 40
0.7812500000000006
 40
0.7812500000000006
 40
0.8125000000000004
 40
0.8125000000000004
 40
0.8437500000000003
 40
0.8437500000000003
 40
0.8750000000000003
 40
0.8750000000000003
 40
0.9062500000000002
 40
0.9062500000000002
 40
0.9375000000000001
 40
0.9375000000000001
 40
0.9687500000000001
 40
0.9687500000000001
 40
1.0
 40
1.0
 40
1.0
 40
1.0
 10
12.40719877090506
 20
23.2362124465294
 30
0.0
 10
12.40244538031681
 20
23.2335191059116
 30
0.0
 10
12.39770372041537
 20
23.23007678440822
 30
0.0
 10
12.38823362189513
 20
23.22178990555371
 30
0.0
 10
12.38345270857944
 20
23.21687743680363
 30
0.0
 10
12.37421260837551
 20
23.20597217308999
 30
0.0
 10
12.36974813816234
 20
23.19999481717829
 30
0.0
 10
12.36111054911073
 20
23.18702468368838
 30
0.0
 10
12.35694621502306
 20
23.18002555870448
 30
0.0
 10
12.34537390747262
 20
23.15837723219823
 30
0.0
 10
12.33861123453534
 20
23.14255454082167
 30
0.0
 10
12.33066919308722
 20
23.11883655694519
 30
0.0
 10
12.32834623629707
 20
23.11082117019238
 30
0.0
 10
12.32447921093012
 20
23.09496341282656
 30
0.0
 10
12.32295350675586
 20
23.08722072654614
 30
0.0
 10
12.32070763226943
 20
23.0720994241465
 30
0.0
 10
12.31998650679646
 20
23.06464605476418
 30
0.0
 10
12.31944308696379
 20
23.05056028901281
 30
0.0
 10
12.31960979141652
 20
23.04393391475023
 30
0.0
 10
12.32084450467015
 20
23.03152436078038
 30
0.0
 10
12.32193463333394
 20
23.02569087648972
 30
0.0
 10
12.32499835129462
 20
23.01539589012795
 30
0.0
 10
12.32696584208222
 20
23.01088272062821
 30
0.0
 10
12.33181956303555
 20
23.00317545634091
 30
0.0
 10
12.33472439679764
 20
23.00000024569496
 30
0.0
 10
12.34121820020142
 20
22.99534972924381
 30
0.0
 10
12.34483428913069
 20
22.99381790954233
 30
0.0
 10
12.35285373246415
 20
22.99243569423974
 30
0.0
 10
12.35712086376346
 20
22.99261239505437
 30
0.0
 10
12.36610104052347
 20
22.99463065866369
 30
0.0
 10
12.37088110418424
 20
22.9965112714557
 30
0.0
 10
12.38053449173777
 20
23.00181529137814
 30
0.0
 10
12.3854220690889
 20
23.00522178002279
 30
0.0
 10
12.39530874440072
 20
23.01352030499299
 30
0.0
 10
12.40024327184043
 20
23.01837117199808
 30
0.0
 10
12.40981483049089
 20
23.02913163133311
 30
0.0
 10
12.41453507651417
 20
23.0351360786519
 30
0.0
 10
12.42355085886609
 20
23.04801490304639
 30
0.0
 10
12.42781144631302
 20
23.05482448049361
 30
0.0
 10
12.43585020684363
 20
23.06915599552229
 30
0.0
 10
12.43964913839492
 20
23.07673857877999
 30
0.0
 10
12.44648047399011
 20
23.09206985193877
 30
0.0
 10
12.4495487713931
 20
23.09987195976097
 30
0.0
 10
12.45498404626903
 20
23.11575175448143
 30
0.0
 10
12.4573356143607
 20
23.12381396078012
 30
0.0
 10
12.46114051300844
 20
23.1395809746813
 30
0.0
 10
12.46262348878991
 20
23.14736642121066
 30
0.0
 10
12.46471714862115
 20
23.16273091316339
 30
0.0
 10
12.46530568237486
 20
23.1702027580155
 30
0.0
 10
12.46554803537933
 20
23.18433164171254
 30
0.0
 10
12.46521142599783
 20
23.19105175342893
 30
0.0
 10
12.4635629264124
 20
23.20374665196392
 30
0.0
 10
12.46227576533768
 20
23.20951768640913
 30
0.0
 10
12.45881165518026
 20
23.21986888017877
 30
0.0
 10
12.45660586593935
 20
23.22449748708615
 30
0.0
 10
12.45135748021715
 20
23.23227273199926
 30
0.0
 10
12.44835700384182
 20
23.23538694240646
 30
0.0
 10
12.44161212972341
 20
23.24006596980513
 30
0.0
 10
12.43782376439341
 20
23.24162287282122
 30
0.0
 10
12.42982337900791
 20
23.24298259593518
 30
0.0
 10
12.42558413878176
 20
23.24282289312114
 30
0.0
 10
12.41661496992288
 20
23.24078207762407
 30
0.0
 10
12.41195216149331
 20
23.23890578714719
 30
0.0
 10
12.40719877090506
 20
23.2362124465294
 30
0.0
  0
SPLINE
  5
85
330
1F
100
AcDbEntity
  8
0
  6
Continuous
 62
     7
370
    15
100
AcDbSpline
210
0.0
220
0.0
230
1.0
 70
    11
 71
     3
 72
    68
 73
    64
 74
     0
 42
0.000000001
 43
0.00000001
 40
0.0
 40
0.0
 40
0.0
 40
0.0
 40
0.0312499999999993
 40
0.0312499999999993
 40
0.0624999999999985
 40
0.0624999999999985
 40
0.0937499999999978
 40
0.0937499999999978
 40
0.124999999999997
 40
0.124999999999997
 40
0.1562499999999963
 40
0.1562499999999963
 40
0.1874999999999955
 40
0.1874999999999955
 40
0.2187499999999948
 40
0.2187499999999948
 40
0.249999999999994
 40
0.249999999999994
 40
0.2812499999999932
 40
0.2812499999999932
 40
0.3124999999999925
 40
0.3124999999999925
 40
0.3437499999999918
 40
0.3437499999999918
 40
0.374999999999991
 40
0.374999999999991
 40
0.4062499999999902
 40
0.4062499999999902
 40
0.4374999999999895
 40
0.4374999999999895
 40
0.4687499999999888
 40
0.4687499999999888
 40
0.499999999999988
 40
0.499999999999988
 40
0.5312499999999872
 40
0.5312499999999872
 40
0.5624999999999865
 40
0.5624999999999865
 40
0.6249999999999851
 40
0.6249999999999851
 40
0.6562499999999863
 40
0.6562499999999863
 40
0.6874999999999876
 40
0.6874999999999876
 40
0.7187499999999889
 40
0.7187499999999889
 40
0.7499999999999901
 40
0.7499999999999901
 40
0.7812499999999913
 40
0.7812499999999913
 40
0.8124999999999926
 40
0.8124999999999926
 40
0.8437499999999939
 40
0.8437499999999939
 40
0.8749999999999951
 40
0.8749999999999951
 40
0.9062499999999963
 40
0.9062499999999963
 40
0.9374999999999976
 40
0.9374999999999976
 40
0.9687499999999989
 40
0.9687499999999989
 40
1.0
 40
1.0
 40
1.0
 40
1.0
 10
19.018697920448
 20
23.0292529867263
 30
0.0
 10
19.01975751748539
 20
23.03506595142875
 30
0.0
 10
19.02033800814481
 20
23.04131571356351
 30
0.0
 10
19.02062278218439
 20
23.05462709143592
 30
0.0
 10
19.02031924147046
 20
23.06175365850778
 30
0.0
 10
19.01884572712217
 20
23.07654210467209
 30
0.0
 10
19.01769165030362
 20
23.08412306534671
 30
0.0
 10
19.01458304614152
 20
23.09964809636665
 30
0.0
 10
19.01260198926845
 20
23.10767175667202
 30
0.0
 10
19.00795201742058
 20
23.12356575032407
 30
0.0
 10
19.00528572101354
 20
23.13146212975012
 30
0.0
 10
18.99926486605349
 20
23.14715248894734
 30
0.0
 10
18.99587958766771
 20
23.15499638455612
 30
0.0
 10
18.98865888430651
 20
23.169947539061
 30
0.0
 10
18.98480006468072
 20
23.17712892545708
 30
0.0
 10
18.9765583034167
 20
23.19087782164261
 30
0.0
 10
18.97216894477507
 20
23.1974331549413
 30
0.0
 10
18.96322938214355
 20
23.20930460596869
 30
0.0
 10
18.95863280704928
 20
23.21470416701746
 30
0.0
 10
18.94915857577933
 20
23.22435941191035
 30
0.0
 10
18.94436930280896
 20
23.22851266968812
 30
0.0
 10
18.93491500022565
 20
23.23527185568978
 30
0.0
 10
18.93017098283635
 20
23.23793237161417
 30
0.0
 10
18.92092349678864
 20
23.24158275165535
 30
0.0
 10
18.91649425104741
 20
23.24255819438688
 30
0.0
 10
18.9080161350586
 20
23.24283368359533
 30
0.0
 10
18.90394122689512
 20
23.24210426038724
 30
0.0
 10
18.89655168704047
 20
23.2389979679154
 30
0.0
 10
18.89318897473398
 20
23.23663551095859
 30
0.0
 10
18.88714465812329
 20
23.23026944741511
 30
0.0
 10
18.8845445194059
 20
23.22634169612595
 30
0.0
 10
18.88021775746049
 20
23.21718072726784
 30
0.0
 10
18.87846765804603
 20
23.21186526947671
 30
0.0
 10
18.87593987908659
 20
23.20023930595075
 30
0.0
 10
18.87514901313924
 20
23.19394469466373
 30
0.0
 10
18.8744965787996
 20
23.18042410100511
 30
0.0
 10
18.87464784016358
 20
23.17319302464519
 30
0.0
 10
18.87647229234739
 20
23.15098812587891
 30
0.0
 10
18.87956988802009
 20
23.13496510728744
 30
0.0
 10
18.88656907227526
 20
23.11120421067117
 30
0.0
 10
18.88931695700362
 20
23.10322670068695
 30
0.0
 10
18.89554845419158
 20
23.0874901646168
 30
0.0
 10
18.8989779859009
 20
23.07985337677028
 30
0.0
 10
18.90644849233394
 20
23.06503260752855
 30
0.0
 10
18.91053601967186
 20
23.05777733961471
 30
0.0
 10
18.91912630026761
 20
23.04414129690886
 30
0.0
 10
18.92360216610561
 20
23.03778432251868
 30
0.0
 10
18.93291106750651
 20
23.02600280020599
 30
0.0
 10
18.93780234586061
 20
23.02052844252887
 30
0.0
 10
18.94756332709767
 20
23.01101338883844
 30
0.0
 10
18.95245431429636
 20
23.0069283305716
 30
0.0
 10
18.96224874469488
 20
23.00015232171857
 30
0.0
 10
18.96715950498444
 20
22.99748096723332
 30
0.0
 10
18.97649548590108
 20
22.99386478078517
 30
0.0
 10
18.98098486654422
 20
22.99286865730313
 30
0.0
 10
18.98958371040288
 20
22.99259025836815
 30
0.0
 10
18.99353651697093
 20
22.99331444485513
 30
0.0
 10
19.00076427019718
 20
22.99640780130871
 30
0.0
 10
19.00407022731142
 20
22.99882237982515
 30
0.0
 10
19.00975065905776
 20
23.00512184639216
 30
0.0
 10
19.01215404689283
 20
23.00899686212716
 30
0.0
 10
19.01611154628316
 20
23.0181755441656
 30
0.0
 10
19.01763832341061
 20
23.02344002202385
 30
0.0
 10
19.018697920448
 20
23.0292529867263
 30
0.0
  0
SPLINE
  5
86
330
1F
100
AcDbEntity
  8
0
  6
Continuous
 62
     7
370
    15
100
AcDbSpline
210
0.0
220
0.0
230
1.0
 70
     8
 71
     3
 72
    13
 73
     9
 74
     0
 42
0.000000001
 43
0.00000001
 40
0.0
 40
0.0
 40
0.0
 40
0.0
 40
0.2004049779919326
 40
0.4006308426102385
 40
0.6048039584413609
 40
0.8064173244020902
 40
0.9979589271095342
 40
1.0
 40
1.0
 40
1.0
 40
1.0
 10
12.39219370602046
 20
23.17823825200441
 30
0.0
 10
12.38532977961377
 20
23.16458629340947
 30
0.0
 10
12.37160806148344
 20
23.13729457775462
 30
0.0
 10
12.35900379575153
 20
23.09241596129184
 30
0.0
 10
12.35397907877051
 20
23.05030101502059
 30
0.0
 10
12.35901103472252
 20
23.01816020591568
 30
0.0
 10
12.3663945449455
 20
23.00050407214577
 30
0.0
 10
12.37307155691209
 20
22.99845877047168
 30
0.0
 10
12.37314195715877
 20
22.99843720547478
 30
0.0
  0
SPLINE
  5
87
330
1F
100
AcDbEntity
  8
0
  6
Continuous
 62
     7
370
    15
100
AcDbSpline
210
0.0
220
0.0
230
1.0
 70
     8
 71
     3
 72
    10
 73
     6
 74
     0
 42
0.000000001
 43
0.00000001
 40
0.0
 40
0.0
 40
0.0
 40
0.0
 40
0.3374318116735944
 40
0.7598633761347979
 40
1.0
 40
1.0
 40
1.0
 40
1.0
 10
12.44460814967941
 20
23.23606646465835
 30
0.0
 10
12.43846798147338
 20
23.23236743932658
 30
0.0
 10
12.42464092432684
 20
23.22403759673389
 30
0.0
 10
12.40645926079845
 20
23.20194731318163
 30
0.0
 10
12.39598861451734
 20
23.18454531255086
 30
0.0
 10
12.39219370602048
 20
23.17823825200434
 30
0.0
  0
SPLINE
  5
88
330
1F
100
AcDbEntity
  8
0
  6
Continuous
 62
     7
370
    15
100
AcDbSpline
210
0.0
220
0.0
230
1.0
 70
     8
 71
     3
 72
    13
 73
     9
 74
     0
 42
0.000000001
 43
0.00000001
 40
0.0
 40
0.0
 40
0.0
 40
0.0
 40
0.1925471149979087
 40
0.3849528316291314
 40
0.5800641007746462
 40
0.7711546171828938
 40
0.9533466310155697
 40
1.0
 40
1.0
 40
1.0
 40
1.0
 10
18.98440457721186
 20
23.04833786233454
 30
0.0
 10
18.98374785661416
 20
23.06149977142051
 30
0.0
 10
18.98243489768628
 20
23.08781392404931
 30
0.0
 10
18.96970158664305
 20
23.13292879564333
 30
0.0
 10
18.95061372711647
 20
23.17620271704287
 30
0.0
 10
18.92681986167713
 20
23.21112958745776
 30
0.0
 10
18.90710626299082
 20
23.2317490706899
 30
0.0
 10
18.89711051955837
 20
23.23521457612124
 30
0.0
 10
18.89507274584021
 20
23.23592106843328
 30
0.0
  0
SPLINE
  5
89
330
1F
100
AcDbEntity
  8
0
  6
Continuous
 62
     7
370
    15
100
AcDbSpline
210
0.0
220
0.0
230
1.0
 70
     8
 71
     3
 72
    10
 73
     6
 74
     0
 42
0.000000001
 43
0.00000001
 40
0.0
 40
0.0
 40
0.0
 40
0.0
 40
0.2865346801315843
 40
0.7405259791440377
 40
1.0
 40
1.0
 40
1.0
 40
1.0
 10
18.96566754918855
 20
22.99918299002389
 30
0.0
 10
18.96896129959035
 20
23.0015440208155
 30
0.0
 10
18.9774737342465
 20
23.00764591618797
 30
0.0
 10
18.98307661302596
 20
23.02633842696358
 30
0.0
 10
18.98405042168505
 20
23.04247081509718
 30
0.0
 10
18.98440457771938
 20
23.04833786356956
 30
0.0
  0
LINE
  5
8A
330
1F
100
AcDbEntity
  8
0
  6
Continuous
 62
     8
370
    15
100
AcDbLine
 10
9.8363620775
 20
14.7541738448
 30
0.0
 11
21.5037421486
 21
14.7541738448
 31
0.0
  0
CIRCLE
  5
8B
330
1F
100
AcDbEntity
  8
0
  6
Continuous
 62
     7
370
    15
100
AcDbCircle
 10
38.8204191867
 20
31.9068812051
 30
0.0
 40
5.836363152185889
  0
CIRCLE
  5
8C
330
1F
100
AcDbEntity
  8
0
  6
Continuous
 62
     7
370
    15
100
AcDbCircle
 10
38.8204191867
 20
31.9068812051
 30
0.0
 40
5.586363152185886
  0
CIRCLE
  5
8D
330
1F
100
AcDbEntity
  8
0
  6
Continuous
 62
     7
370
    15
100
AcDbCircle
 10
38.8204191867
 20
31.9068812051
 30
0.0
 40
4.562499999999996
  0
CIRCLE
  5
8E
330
1F
100
AcDbEntity
  8
0
  6
Continuous
 62
     7
370
    15
100
AcDbCircle
 10
38.8204191867
 20
31.9068812051
 30
0.0
 40
3.476808560949085
  0
SPLINE
  5
8F
330
1F
100
AcDbEntity
  8
0
  6
Continuous
 62
     7
370
    15
100
AcDbSpline
210
0.0
220
0.0
230
1.0
 70
    11
 71
     3
 72
    68
 73
    64
 74
     0
 42
0.000000001
 43
0.00000001
 40
0.0
 40
0.0
 40
0.0
 40
0.0
 40
0.03125
 40
0.03125
 40
0.0625
 40
0.0625
 40
0.0937500000000001
 40
0.0937500000000001
 40
0.1250000000000001
 40
0.1250000000000001
 40
0.1562500000000001
 40
0.1562500000000001
 40
0.1875000000000001
 40
0.1875000000000001
 40
0.2187500000000002
 40
0.2187500000000002
 40
0.2500000000000002
 40
0.2500000000000002
 40
0.2812500000000002
 40
0.2812500000000002
 40
0.3125000000000003
 40
0.3125000000000003
 40
0.3437500000000003
 40
0.3437500000000003
 40
0.3750000000000003
 40
0.3750000000000003
 40
0.4062500000000003
 40
0.4062500000000003
 40
0.4375000000000003
 40
0.4375000000000003
 40
0.4687500000000004
 40
0.4687500000000004
 40
0.5000000000000003
 40
0.5000000000000003
 40
0.5312500000000003
 40
0.5312500000000003
 40
0.5625000000000003
 40
0.5625000000000003
 40
0.5937500000000004
 40
0.5937500000000004
 40
0.6250000000000004
 40
0.6250000000000004
 40
0.6562500000000004
 40
0.6562500000000004
 40
0.6875000000000004
 40
0.6875000000000004
 40
0.7187500000000004
 40
0.7187500000000004
 40
0.7500000000000004
 40
0.7500000000000004
 40
0.7812500000000006
 40
0.7812500000000006
 40
0.8125000000000006
 40
0.8125000000000006
 40
0.8749999999999999
 40
0.8749999999999999
 40
0.9062499999999999
 40
0.9062499999999999
 40
0.9375
 40
0.9375
 40
0.96875
 40
0.96875
 40
1.0
 40
1.0
 40
1.0
 40
1.0
 10
35.03801626552925
 20
31.84940606997559
 30
0.0
 10
35.03657630600984
 20
31.85684862346412
 30
0.0
 10
35.03542534724241
 20
31.8645865589243
 30
0.0
 10
35.03370492437024
 20
31.88064782358164
 30
0.0
 10
35.03313617225886
 20
31.88907283297844
 30
0.0
 10
35.03265841007597
 20
31.90583964103851
 30
0.0
 10
35.03273694440729
 20
31.91422249695023
 30
0.0
 10
35.03353766562226
 20
31.93098709615781
 30
0.0
 10
35.03426028055239
 20
31.93924213320027
 30
0.0
 10
35.03627380039244
 20
31.95501464751081
 30
0.0
 10
35.03758651154371
 20
31.96268830844365
 30
0.0
 10
35.04070400903017
 20
31.9770208941333
 30
0.0
 10
35.04249451749085
 20
31.98365732449292
 30
0.0
 10
35.04650868577979
 20
31.99591348894939
 30
0.0
 10
35.04873662179381
 20
32.00151461032807
 30
0.0
 10
35.05342591718531
 20
32.01127087485084
 30
0.0
 10
35.0559078875561
 20
32.01549468506238
 30
0.0
 10
35.06113747971446
 20
32.02262519492641
 30
0.0
 10
35.06380942614702
 20
32.02542836943087
 30
0.0
 10
35.069247357831
 20
32.02958790193802
 30
0.0
 10
35.07203882314364
 20
32.03094871496801
 30
0.0
 10
35.07759897040636
 20
32.03212865570896
 30
0.0
 10
35.08034373437529
 20
32.0319576254326
 30
0.0
 10
35.08576387310868
 20
32.03011586210547
 30
0.0
 10
35.08846650974173
 20
32.02841374192971
 30
0.0
 10
35.0936286741774
 20
32.02354910676465
 30
0.0
 10
35.09609391231626
 20
32.02040483142687
 30
0.0
 10
35.10079753041641
 20
32.01266885447762
 30
0.0
 10
35.10305289618378
 20
32.00801819686881
 30
0.0
 10
35.10714832678318
 20
31.99757559107626
 30
0.0
 10
35.10901055946746
 20
31.99176374408262
 30
0.0
 10
35.11236257091435
 20
31.9789118443192
 30
0.0
 10
35.11384468447374
 20
31.97185941508113
 30
0.0
 10
35.1162910282638
 20
31.95714777960549
 30
0.0
 10
35.1172775701654
 20
31.94941329905583
 30
0.0
 10
35.11875779513159
 20
31.93313954754291
 30
0.0
 10
35.11922661354542
 20
31.92485758892249
 30
0.0
 10
35.11963515992999
 20
31.90814215580938
 30
0.0
 10
35.11957076350951
 20
31.89958337161371
 30
0.0
 10
35.11890237647313
 20
31.8828709567169
 30
0.0
 10
35.11830700258985
 20
31.87471740276439
 30
0.0
 10
35.11659180383305
 20
31.85881234964234
 30
0.0
 10
35.1154694903052
 20
31.85110985839865
 30
0.0
 10
35.11279295246448
 20
31.83679238583521
 30
0.0
 10
35.1112171363044
 20
31.83004244092274
 30
0.0
 10
35.10764828364134
 20
31.81766356987798
 30
0.0
 10
35.10568847270854
 20
31.81213101523557
 30
0.0
 10
35.10142319480498
 20
31.80231305053819
 30
0.0
 10
35.09909546239459
 20
31.7980084222695
 30
0.0
 10
35.0942573505048
 20
31.79095957647838
 30
0.0
 10
35.09173293957055
 20
31.78816759688209
 30
0.0
 10
35.08646793944455
 20
31.78403313074329
 30
0.0
 10
35.08374226560093
 20
31.78271983773525
 30
0.0
 10
35.07554918625902
 20
31.78108773881897
 30
0.0
 10
35.06987455873774
 20
31.7830707684396
 30
0.0
 10
35.06180279056358
 20
31.79039774203607
 30
0.0
 10
35.05915462497566
 20
31.79357648945506
 30
0.0
 10
35.05403758756775
 20
31.80139573720788
 30
0.0
 10
35.051624539534
 20
31.80594291307089
 30
0.0
 10
35.04709874058281
 20
31.81630465744089
 30
0.0
 10
35.04496864198024
 20
31.82217888040605
 30
0.0
 10
35.04114232320047
 20
31.83503779842503
 30
0.0
 10
35.03945622504867
 20
31.84196351648706
 30
0.0
 10
35.03801626552926
 20
31.84940606997559
 30
0.0
  0
SPLINE
  5
90
330
1F
100
AcDbEntity
  8
0
  6
Continuous
 62
     7
370
    15
100
AcDbSpline
210
0.0
220
0.0
230
1.0
 70
    11
 71
     3
 72
    66
 73
    62
 74
     0
 42
0.000000001
 43
0.00000001
 40
0.0
 40
0.0
 40
0.0
 40
0.0
 40
0.0312499999999999
 40
0.0312499999999999
 40
0.0624999999999998
 40
0.0624999999999998
 40
0.0937499999999998
 40
0.0937499999999998
 40
0.1249999999999997
 40
0.1249999999999997
 40
0.1562499999999996
 40
0.1562499999999996
 40
0.1874999999999996
 40
0.1874999999999996
 40
0.2187499999999995
 40
0.2187499999999995
 40
0.2499999999999994
 40
0.2499999999999994
 40
0.2812499999999993
 40
0.2812499999999993
 40
0.3124999999999992
 40
0.3124999999999992
 40
0.3437499999999992
 40
0.3437499999999992
 40
0.3749999999999991
 40
0.3749999999999991
 40
0.406249999999999
 40
0.406249999999999
 40
0.4374999999999989
 40
0.4374999999999989
 40
0.4687499999999988
 40
0.4687499999999988
 40
0.4999999999999988
 40
0.4999999999999988
 40
0.5312499999999987
 40
0.5312499999999987
 40
0.5624999999999987
 40
0.5624999999999987
 40
0.5937499999999986
 40
0.5937499999999986
 40
0.6249999999999984
 40
0.6249999999999984
 40
0.6874999999999987
 40
0.6874999999999987
 40
0.7187499999999988
 40
0.7187499999999988
 40
0.7499999999999989
 40
0.7499999999999989
 40
0.7812499999999991
 40
0.7812499999999991
 40
0.8124999999999992
 40
0.8124999999999992
 40
0.8437499999999993
 40
0.8437499999999993
 40
0.8749999999999996
 40
0.8749999999999996
 40
0.9062499999999997
 40
0.9062499999999997
 40
0.9374999999999998
 40
0.9374999999999998
 40
1.0
 40
1.0
 40
1.0
 40
1.0
 10
40.58660273793505
 20
35.1847396120974
 30
0.0
 10
40.58436837589552
 20
35.18877140115002
 30
0.0
 10
40.58285376088902
 20
35.19249855482498
 30
0.0
 10
40.58117275457958
 20
35.19939134144444
 30
0.0
 10
40.58101191975353
 20
35.20257818009169
 30
0.0
 10
40.58207561354724
 20
35.20827018526545
 30
0.0
 10
40.58328173664827
 20
35.21074438507341
 30
0.0
 10
40.58700090946228
 20
35.21497246304783
 30
0.0
 10
40.58955062076295
 20
35.21673786796988
 30
0.0
 10
40.59584780428636
 20
35.2194134040882
 30
0.0
 10
40.59957838477983
 20
35.22033433116484
 30
0.0
 10
40.60820810818957
 20
35.2213296781898
 30
0.0
 10
40.61316618641448
 20
35.22139480913516
 30
0.0
 10
40.62392126199332
 20
35.22061790621979
 30
0.0
 10
40.62973847781645
 20
35.2197877831268
 30
0.0
 10
40.64228197972582
 20
35.21719764418987
 30
0.0
 10
40.64904519472654
 20
35.21541707051131
 30
0.0
 10
40.66288685086602
 20
35.21102972778339
 30
0.0
 10
40.67003646779875
 20
35.20841256787283
 30
0.0
 10
40.68481791383075
 20
35.20226786312048
 30
0.0
 10
40.69231362212788
 20
35.19879002863157
 30
0.0
 10
40.70709663119707
 20
35.19121889901951
 30
0.0
 10
40.71452814927311
 20
35.18704929214996
 30
0.0
 10
40.72890577640002
 20
35.17823709440204
 30
0.0
 10
40.73578257364554
 20
35.17364652933561
 30
0.0
 10
40.7489294512043
 20
35.16410914451442
 30
0.0
 10
40.75519633378934
 20
35.159152038253
 30
0.0
 10
40.76656528283804
 20
35.14934022107929
 30
0.0
 10
40.77176909420427
 20
35.14440800820836
 30
0.0
 10
40.78109044856679
 20
35.13463068006826
 30
0.0
 10
40.7851053060432
 20
35.12989824391516
 30
0.0
 10
40.7919310950658
 20
35.12073631431686
 30
0.0
 10
40.79475407865537
 20
35.11627077509863
 30
0.0
 10
40.79901421474381
 20
35.10795852777346
 30
0.0
 10
40.8004820555032
 20
35.1040821798321
 30
0.0
 10
40.80211671010069
 20
35.09688853769968
 30
0.0
 10
40.80226552992555
 20
35.09358594615876
 30
0.0
 10
40.80125176498587
 20
35.08779953271791
 30
0.0
 10
40.80010049495173
 20
35.08527807946155
 30
0.0
 10
40.79646942014246
 20
35.08100284169122
 30
0.0
 10
40.79400910686252
 20
35.07928876795829
 30
0.0
 10
40.78488153625409
 20
35.07549884060063
 30
0.0
 10
40.77623129871177
 20
35.07474324740711
 30
0.0
 10
40.76045042844597
 20
35.07646049361533
 30
0.0
 10
40.75464675520022
 20
35.07750809297312
 30
0.0
 10
40.74220522983772
 20
35.08054371660732
 30
0.0
 10
40.73567517687864
 20
35.0824987977729
 30
0.0
 10
40.72198994836278
 20
35.08727243043914
 30
0.0
 10
40.71474336622809
 20
35.09013425893585
 30
0.0
 10
40.7001748807884
 20
35.09652726996971
 30
0.0
 10
40.69282642539348
 20
35.10005911095167
 30
0.0
 10
40.6779950433579
 20
35.10780225556795
 30
0.0
 10
40.67055362049734
 20
35.11200060778773
 30
0.0
 10
40.65624565138533
 20
35.12068641722993
 30
0.0
 10
40.64923938785257
 20
35.12525469519498
 30
0.0
 10
40.63586820120491
 20
35.13463605203315
 30
0.0
 10
40.6296248797544
 20
35.13935844696194
 30
0.0
 10
40.61799224330986
 20
35.14887232580122
 30
0.0
 10
40.61257866070037
 20
35.15369670986281
 30
0.0
 10
40.59830665246832
 20
35.16768347922026
 30
0.0
 10
40.59107146201413
 20
35.17667603399216
 30
0.0
 10
40.58660273793505
 20
35.1847396120974
 30
0.0
  0
SPLINE
  5
91
330
1F
100
AcDbEntity
  8
0
  6
Continuous
 62
     7
370
    15
100
AcDbSpline
210
0.0
220
0.0
230
1.0
 70
    11
 71
     3
 72
    66
 73
    62
 74
     0
 42
0.000000001
 43
0.00000001
 40
0.0
 40
0.0
 40
0.0
 40
0.0
 40
0.0312500000000013
 40
0.0312500000000013
 40
0.0625000000000026
 40
0.0625000000000026
 40
0.093750000000004
 40
0.093750000000004
 40
0.1250000000000053
 40
0.1250000000000053
 40
0.1562500000000066
 40
0.1562500000000066
 40
0.1875000000000079
 40
0.1875000000000079
 40
0.2187500000000092
 40
0.2187500000000092
 40
0.2500000000000105
 40
0.2500000000000105
 40
0.2812500000000119
 40
0.2812500000000119
 40
0.3125000000000132
 40
0.3125000000000132
 40
0.3437500000000145
 40
0.3437500000000145
 40
0.3750000000000158
 40
0.3750000000000158
 40
0.4062500000000172
 40
0.4062500000000172
 40
0.4375000000000184
 40
0.4375000000000184
 40
0.4687500000000198
 40
0.4687500000000198
 40
0.5000000000000211
 40
0.5000000000000211
 40
0.5312500000000224
 40
0.5312500000000224
 40
0.5625000000000238
 40
0.5625000000000238
 40
0.5937500000000251
 40
0.5937500000000251
 40
0.6250000000000264
 40
0.6250000000000264
 40
0.6875000000000252
 40
0.6875000000000252
 40
0.7187500000000229
 40
0.7187500000000229
 40
0.7500000000000205
 40
0.7500000000000205
 40
0.7812500000000182
 40
0.7812500000000182
 40
0.8125000000000159
 40
0.8125000000000159
 40
0.8437500000000135
 40
0.8437500000000135
 40
0.8750000000000111
 40
0.8750000000000111
 40
0.9062500000000088
 40
0.9062500000000088
 40
0.9375000000000064
 40
0.9375000000000064
 40
1.0
 40
1.0
 40
1.0
 40
1.0
 10
40.61389411594327
 20
28.59252874090599
 30
0.0
 10
40.60875375908931
 20
28.5924039224371
 30
0.0
 10
40.60421644401444
 20
28.59273203181003
 30
0.0
 10
40.59627203606342
 20
28.5942251793627
 30
0.0
 10
40.59284572133234
 20
28.59540266925381
 30
0.0
 10
40.58726819146577
 20
28.59857090861985
 30
0.0
 10
40.58514579249545
 20
28.60053329212584
 30
0.0
 10
40.58219849706548
 20
28.60519141856885
 30
0.0
 10
40.58137587524236
 20
28.60792072566005
 30
0.0
 10
40.58112908560192
 20
28.613986416177
 30
0.0
 10
40.58168726391149
 20
28.61730955400759
 30
0.0
 10
40.58417320579209
 20
28.62454558297892
 30
0.0
 10
40.58613572538511
 20
28.62850404424427
 30
0.0
 10
40.59134942218761
 20
28.6367467757638
 30
0.0
 10
40.59459387519203
 20
28.64104762457376
 30
0.0
 10
40.60239297066371
 20
28.65003066578251
 30
0.0
 10
40.60698536769258
 20
28.65473715783697
 30
0.0
 10
40.61711249694375
 20
28.6641243372598
 30
0.0
 10
40.62268607865831
 20
28.66885622940674
 30
0.0
 10
40.63490266837727
 20
28.67841134115673
 30
0.0
 10
40.64144496587119
 20
28.68314904683572
 30
0.0
 10
40.65502650209572
 20
28.69229613327749
 30
0.0
 10
40.66219358071697
 20
28.6967901305699
 30
0.0
 10
40.67680464041088
 20
28.70530333464689
 30
0.0
 10
40.6841555032841
 20
28.70927544562112
 30
0.0
 10
40.69894744536668
 20
28.7166592595935
 30
0.0
 10
40.70642188813348
 20
28.72007715857792
 30
0.0
 10
40.72078660491441
 20
28.72603042337734
 30
0.0
 10
40.72776372951195
 20
28.72861237876832
 30
0.0
 10
40.74130746432561
 20
28.7329653654185
 30
0.0
 10
40.7476482097652
 20
28.73466375422885
 30
0.0
 10
40.75952789120181
 20
28.73715428689788
 30
0.0
 10
40.76511525183866
 20
28.73794542204028
 30
0.0
 10
40.77512742793781
 20
28.73855934480713
 30
0.0
 10
40.77957943822913
 20
28.73839657533979
 30
0.0
 10
40.78740730370389
 20
28.73714579352398
 30
0.0
 10
40.79076580297728
 20
28.73604612842778
 30
0.0
 10
40.79615668944482
 20
28.73300895496367
 30
0.0
 10
40.79823242347489
 20
28.73106747021267
 30
0.0
 10
40.80112456632197
 20
28.72632252099898
 30
0.0
 10
40.80190747562727
 20
28.72355763305097
 30
0.0
 10
40.80228972253033
 20
28.71426538372894
 30
0.0
 10
40.7998696052931
 20
28.70655349304812
 30
0.0
 10
40.79239944477536
 20
28.69373706213506
 30
0.0
 10
40.78923641556693
 20
28.68918858929151
 30
0.0
 10
40.78165980852642
 20
28.67978493852175
 30
0.0
 10
40.77731050079424
 20
28.67499816538552
 30
0.0
 10
40.7674721979845
 20
28.66526347700024
 30
0.0
 10
40.76190280976324
 20
28.66025276332618
 30
0.0
 10
40.74996884094084
 20
28.65045778238214
 30
0.0
 10
40.7436090512547
 20
28.64566309255503
 30
0.0
 10
40.73007826444958
 20
28.63629162319689
 30
0.0
 10
40.72289290719395
 20
28.63171839274603
 30
0.0
 10
40.70840353203595
 20
28.62325829863889
 30
0.0
 10
40.70098193006781
 20
28.61929330188457
 30
0.0
 10
40.68596851883191
 20
28.61201000053208
 30
0.0
 10
40.6785862713654
 20
28.60879013740918
 30
0.0
 10
40.66406109727729
 20
28.60314382013691
 30
0.0
 10
40.65686389449306
 20
28.60070809714782
 30
0.0
 10
40.6365182379231
 20
28.59486676465497
 30
0.0
 10
40.62417482965121
 20
28.5927783778438
 30
0.0
 10
40.61389411594327
 20
28.59252874090599
 30
0.0
  0
SPLINE
  5
92
330
1F
100
AcDbEntity
  8
0
  6
Continuous
 62
     7
370
    15
100
AcDbSpline
210
0.0
220
0.0
230
1.0
 70
     8
 71
     3
 72
    15
 73
    11
 74
     0
 42
0.000000001
 43
0.00000001
 40
0.0
 40
0.0
 40
0.0
 40
0.0
 40
0.0143862085737726
 40
0.1911061424373075
 40
0.3588692842903373
 40
0.5190887699276266
 40
0.6756923772573836
 40
0.8332221845447041
 40
0.9956990489956307
 40
1.0
 40
1.0
 40
1.0
 40
1.0
 10
40.61145618933612
 20
28.59874399659996
 30
0.0
 10
40.61170310009081
 20
28.59929943595777
 30
0.0
 10
40.61498305822651
 20
28.6066778826474
 30
0.0
 10
40.63338228167489
 20
28.62462193108507
 30
0.0
 10
40.66391427092075
 20
28.6490768233149
 30
0.0
 10
40.69994936333767
 20
28.67111772885072
 30
0.0
 10
40.73626275736888
 20
28.68855659654706
 30
0.0
 10
40.76877859406952
 20
28.69906052330441
 30
0.0
 10
40.78948759452514
 20
28.70356073435414
 30
0.0
 10
40.79572366902882
 20
28.70221188200395
 30
0.0
 10
40.79588448808516
 20
28.70217709711451
 30
0.0
  0
SPLINE
  5
93
330
1F
100
AcDbEntity
  8
0
  6
Continuous
 62
     7
370
    15
100
AcDbSpline
210
0.0
220
0.0
230
1.0
 70
     8
 71
     3
 72
    10
 73
     6
 74
     0
 42
0.000000001
 43
0.00000001
 40
0.0
 40
0.0
 40
0.0
 40
0.0
 40
0.4413309328991094
 40
0.8820943935227578
 40
1.0
 40
1.0
 40
1.0
 40
1.0
 10
40.65828909731933
 20
35.16973454721279
 30
0.0
 10
40.64834846371527
 20
35.17760950983866
 30
0.0
 10
40.62847997837569
 20
35.19334930930353
 30
0.0
 10
40.61211087296023
 20
35.21123580298401
 30
0.0
 10
40.6091284457799
 20
35.21899917583394
 30
0.0
 10
40.60849901253189
 20
35.22063761482776
 30
0.0
  0
SPLINE
  5
94
330
1F
100
AcDbEntity
  8
0
  6
Continuous
 62
     7
370
    15
100
AcDbSpline
210
0.0
220
0.0
230
1.0
 70
     8
 71
     3
 72
    12
 73
     8
 74
     0
 42
0.000000001
 43
0.00000001
 40
0.0
 40
0.0
 40
0.0
 40
0.0
 40
0.1418711304301041
 40
0.3973485186843764
 40
0.6397174579079308
 40
0.8720323591870298
 40
1.0
 40
1.0
 40
1.0
 40
1.0
 10
40.79571526307146
 20
35.11269622606135
 30
0.0
 10
40.79144351855188
 20
35.11240104748771
 30
0.0
 10
40.77947934126008
 20
35.11157431995949
 30
0.0
 10
40.74953582321027
 20
35.12021355675464
 30
0.0
 10
40.71242898374537
 20
35.13606776881336
 30
0.0
 10
40.68086726214039
 20
35.15390868974072
 30
0.0
 10
40.66420670797714
 20
35.16558667852693
 30
0.0
 10
40.65828909731933
 20
35.1697345472128
 30
0.0
  0
SPLINE
  5
95
330
1F
100
AcDbEntity
  8
0
  6
Continuous
 62
     7
370
    15
100
AcDbSpline
210
0.0
220
0.0
230
1.0
 70
     8
 71
     3
 72
    15
 73
    11
 74
     0
 42
0.000000001
 43
0.00000001
 40
0.0
 40
0.0
 40
0.0
 40
0.0
 40
0.0332721952237167
 40
0.2016106021369941
 40
0.361592914662115
 40
0.5140478583089586
 40
0.6624758823124064
 40
0.8111733954362286
 40
0.9640636393692967
 40
1.0
 40
1.0
 40
1.0
 40
1.0
 10
35.05660126683755
 20
32.01527702348378
 30
0.0
 10
35.05750331067861
 20
32.01425186166941
 30
0.0
 10
35.06296918393177
 20
32.00803996343752
 30
0.0
 10
35.0702618873086
 20
31.983303519027
 30
0.0
 10
35.0767839990484
 20
31.94522165568959
 30
0.0
 10
35.07851357970258
 20
31.90304090393349
 30
0.0
 10
35.07603145669853
 20
31.86243012416653
 30
0.0
 10
35.06945151758679
 20
31.82770485262872
 30
0.0
 10
35.06252129265245
 20
31.80538632035779
 30
0.0
 10
35.0574340884349
 20
31.79934675682961
 30
0.0
 10
35.05646592186862
 20
31.79819734288182
 30
0.0
  0
CIRCLE
  5
96
330
1F
100
AcDbEntity
  8
0
  6
Continuous
 62
     7
370
    15
100
AcDbCircle
 10
38.8204191867
 20
7.0752025562
 30
0.0
 40
5.836363152185887
  0
CIRCLE
  5
97
330
1F
100
AcDbEntity
  8
0
  6
Continuous
 62
     7
370
    15
100
AcDbCircle
 10
38.8204191867
 20
7.0752025562
 30
0.0
 40
3.518739417890879
  0
CIRCLE
  5
98
330
1F
100
AcDbEntity
  8
0
  6
Continuous
 62
     7
370
    15
100
AcDbCircle
 10
38.8204191867
 20
7.0752025562
 30
0.0
 40
5.833690035529456
  0
SPLINE
  5
99
330
1F
100
AcDbEntity
  8
0
  6
Continuous
 62
     7
370
    15
100
AcDbSpline
210
0.0
220
0.0
230
1.0
 70
    11
 71
     3
 72
    68
 73
    64
 74
     0
 42
0.000000001
 43
0.00000001
 40
0.0
 40
0.0
 40
0.0
 40
0.0
 40
0.0312500000000002
 40
0.0312500000000002
 40
0.0625000000000005
 40
0.0625000000000005
 40
0.0937500000000007
 40
0.0937500000000007
 40
0.1250000000000009
 40
0.1250000000000009
 40
0.1562500000000012
 40
0.1562500000000012
 40
0.1875000000000014
 40
0.1875000000000014
 40
0.2187500000000017
 40
0.2187500000000017
 40
0.2500000000000019
 40
0.2500000000000019
 40
0.2812500000000021
 40
0.2812500000000021
 40
0.3125000000000023
 40
0.3125000000000023
 40
0.3437500000000026
 40
0.3437500000000026
 40
0.3750000000000028
 40
0.3750000000000028
 40
0.4062500000000031
 40
0.4062500000000031
 40
0.4375000000000033
 40
0.4375000000000033
 40
0.4687500000000036
 40
0.4687500000000036
 40
0.5000000000000038
 40
0.5000000000000038
 40
0.531250000000004
 40
0.531250000000004
 40
0.5625000000000042
 40
0.5625000000000042
 40
0.5937500000000044
 40
0.5937500000000044
 40
0.6250000000000047
 40
0.6250000000000047
 40
0.656250000000005
 40
0.656250000000005
 40
0.6875000000000052
 40
0.6875000000000052
 40
0.7187500000000054
 40
0.7187500000000054
 40
0.7500000000000057
 40
0.7500000000000057
 40
0.7812500000000059
 40
0.7812500000000059
 40
0.8125000000000061
 40
0.8125000000000061
 40
0.8750000000000067
 40
0.8750000000000067
 40
0.906250000000005
 40
0.906250000000005
 40
0.9375000000000033
 40
0.9375000000000033
 40
0.9687500000000017
 40
0.9687500000000017
 40
1.0
 40
1.0
 40
1.0
 40
1.0
 10
34.99696785265495
 20
7.135646734053974
 30
0.0
 10
34.99545993915738
 20
7.128321919220983
 30
0.0
 10
34.99423546395975
 20
7.120679978612096
 30
0.0
 10
34.99235809943931
 20
7.104766769734636
 30
0.0
 10
34.99170473937109
 20
7.096393370640194
 30
0.0
 10
34.99105586599304
 20
7.079673487513644
 30
0.0
 10
34.99104767251303
 20
7.071289148989768
 30
0.0
 10
34.99167426695402
 20
7.054470872460508
 30
0.0
 10
34.99231140252611
 20
7.046155916154996
 30
0.0
 10
34.99416271126891
 20
7.030227617424422
 30
0.0
 10
34.99539694298721
 20
7.022453700218366
 30
0.0
 10
34.99837221803998
 20
7.007875559647049
 30
0.0
 10
35.00009799602659
 20
7.001101427768626
 30
0.0
 10
35.00399501702024
 20
6.988540695800991
 30
0.0
 10
35.00617148974514
 20
6.98277052260427
 30
0.0
 10
35.01077314156473
 20
6.972663931564952
 30
0.0
 10
35.01321836722141
 20
6.968256675377365
 30
0.0
 10
35.01838826341541
 20
6.960741252135542
 30
0.0
 10
35.02103712151089
 20
6.957743356522574
 30
0.0
 10
35.02644353835301
 20
6.953185570856105
 30
0.0
 10
35.02922674855087
 20
6.95161999240611
 30
0.0
 10
35.03477983316724
 20
6.950030321305844
 30
0.0
 10
35.03752816135458
 20
6.949996949201388
 30
0.0
 10
35.04296884299528
 20
6.951430310002409
 30
0.0
 10
35.04568833851179
 20
6.952926483259889
 30
0.0
 10
35.05089313842612
 20
6.95738752953763
 30
0.0
 10
35.05338629227396
 20
6.960335485017077
 30
0.0
 10
35.05815842877396
 20
6.967690827542906
 30
0.0
 10
35.06045375021884
 20
6.972153739173177
 30
0.0
 10
35.06463805125037
 20
6.982245173697725
 30
0.0
 10
35.06655023215082
 20
6.987894108318236
 30
0.0
 10
35.07001290368193
 20
7.000448084375317
 30
0.0
 10
35.07155505319114
 20
7.007362673500443
 30
0.0
 10
35.07412754584666
 20
7.021843371336547
 30
0.0
 10
35.07518065218822
 20
7.029482466681221
 30
0.0
 10
35.07680118760062
 20
7.045609207813369
 30
0.0
 10
35.07734161634269
 20
7.053843173832482
 30
0.0
 10
35.07789485609622
 20
7.070510231630291
 30
0.0
 10
35.07790476123395
 20
7.07906962448499
 30
0.0
 10
35.07738154117852
 20
7.095839509386879
 30
0.0
 10
35.07685709700277
 20
7.104045062756621
 30
0.0
 10
35.07528101977369
 20
7.120100112756281
 30
0.0
 10
35.07422581757486
 20
7.127905778799046
 30
0.0
 10
35.07167518733978
 20
7.142460584717247
 30
0.0
 10
35.07015967715033
 20
7.149346750250204
 30
0.0
 10
35.06670102754261
 20
7.162036015759517
 30
0.0
 10
35.06479137467915
 20
7.167735098127049
 30
0.0
 10
35.06061722183279
 20
7.177908169148211
 30
0.0
 10
35.05833053343655
 20
7.182403314277282
 30
0.0
 10
35.05356270682313
 20
7.189840202951547
 30
0.0
 10
35.05106796530627
 20
7.192831030472442
 30
0.0
 10
35.04585116733256
 20
7.197373476337041
 30
0.0
 10
35.0431449849543
 20
7.198893878041627
 30
0.0
 10
35.03499070815823
 20
7.2011424109432
 30
0.0
 10
35.02931928162616
 20
7.199576355357211
 30
0.0
 10
35.02121307292858
 20
7.192842241396204
 30
0.0
 10
35.01854466515207
 20
7.189854922674916
 30
0.0
 10
35.0133803553579
 20
7.182418041775793
 30
0.0
 10
35.01093608348126
 20
7.178052023693782
 30
0.0
 10
35.00633250226156
 20
7.168032044802328
 30
0.0
 10
35.00415507000193
 20
7.162318536254086
 30
0.0
 10
35.00022236871052
 20
7.149761992958969
 30
0.0
 10
34.99847576615251
 20
7.142971548886965
 30
0.0
 10
34.99696785265495
 20
7.135646734053974
 30
0.0
  0
SPLINE
  5
9A
330
1F
100
AcDbEntity
  8
0
  6
Continuous
 62
     7
370
    15
100
AcDbSpline
210
0.0
220
0.0
230
1.0
 70
    11
 71
     3
 72
    68
 73
    64
 74
     0
 42
0.000000001
 43
0.00000001
 40
0.0
 40
0.0
 40
0.0
 40
0.0
 40
0.0312500000000004
 40
0.0312500000000004
 40
0.0625000000000007
 40
0.0625000000000007
 40
0.0937500000000011
 40
0.0937500000000011
 40
0.1250000000000015
 40
0.1250000000000015
 40
0.187500000000002
 40
0.187500000000002
 40
0.2187500000000019
 40
0.2187500000000019
 40
0.2500000000000018
 40
0.2500000000000018
 40
0.2812500000000018
 40
0.2812500000000018
 40
0.3125000000000017
 40
0.3125000000000017
 40
0.3437500000000016
 40
0.3437500000000016
 40
0.3750000000000015
 40
0.3750000000000015
 40
0.4062500000000014
 40
0.4062500000000014
 40
0.4375000000000014
 40
0.4375000000000014
 40
0.4687500000000013
 40
0.4687500000000013
 40
0.5000000000000012
 40
0.5000000000000012
 40
0.5312500000000011
 40
0.5312500000000011
 40
0.5625000000000011
 40
0.5625000000000011
 40
0.593750000000001
 40
0.593750000000001
 40
0.6250000000000009
 40
0.6250000000000009
 40
0.6562500000000009
 40
0.6562500000000009
 40
0.6875000000000008
 40
0.6875000000000008
 40
0.7187500000000007
 40
0.7187500000000007
 40
0.7500000000000006
 40
0.7500000000000006
 40
0.7812500000000006
 40
0.7812500000000006
 40
0.8125000000000004
 40
0.8125000000000004
 40
0.8437500000000003
 40
0.8437500000000003
 40
0.8750000000000003
 40
0.8750000000000003
 40
0.9062500000000002
 40
0.9062500000000002
 40
0.9375000000000001
 40
0.9375000000000001
 40
0.9687500000000001
 40
0.9687500000000001
 40
1.0
 40
1.0
 40
1.0
 40
1.0
 10
40.65828909731934
 20
3.812349214056215
 30
0.0
 10
40.65177023698221
 20
3.807595823467962
 30
0.0
 10
40.64575346520099
 20
3.802854163566526
 30
0.0
 10
40.63466718571069
 20
3.793384065046285
 30
0.0
 10
40.62955085056406
 20
3.788603151730587
 30
0.0
 10
40.62062047576968
 20
3.779363051526663
 30
0.0
 10
40.61678686018676
 20
3.774898581313492
 30
0.0
 10
40.61035310408666
 20
3.766260992261878
 30
0.0
 10
40.60777336702571
 20
3.762096658174217
 30
0.0
 10
40.60217974798019
 20
3.750524350623773
 30
0.0
 10
40.60118940098183
 20
3.743761677686493
 30
0.0
 10
40.60379114874706
 20
3.735819636238367
 30
0.0
 10
40.60534127930323
 20
3.733496679448218
 30
0.0
 10
40.60976034151329
 20
3.729629654081267
 30
0.0
 10
40.61259041072425
 20
3.728103949907016
 30
0.0
 10
40.61946728856413
 20
3.725858075420582
 30
0.0
 10
40.62356672481855
 20
3.725136949947609
 30
0.0
 10
40.63280095597047
 20
3.724593530114937
 30
0.0
 10
40.6379112577071
 20
3.724760234567672
 30
0.0
 10
40.64912952332989
 20
3.725994947821303
 30
0.0
 10
40.65531339353976
 20
3.727085076485097
 30
0.0
 10
40.66823451723134
 20
3.730148794445768
 30
0.0
 10
40.6749985907834
 20
3.732116285233374
 30
0.0
 10
40.68915419427382
 20
3.736970006186703
 30
0.0
 10
40.69656397789855
 20
3.739874839948793
 30
0.0
 10
40.71130032578158
 20
3.746368643352575
 30
0.0
 10
40.71871603053953
 20
3.749984732281839
 30
0.0
 10
40.73364591748169
 20
3.758004175615298
 30
0.0
 10
40.74090370551723
 20
3.76227130691461
 30
0.0
 10
40.75494000016071
 20
3.771251483674617
 30
0.0
 10
40.76180530568253
 20
3.77603154733539
 30
0.0
 10
40.77455009100223
 20
3.785684934888922
 30
0.0
 10
40.78046692654298
 20
3.790572512240052
 30
0.0
 10
40.79141038497406
 20
3.800459187551869
 30
0.0
 10
40.79635628921547
 20
3.805393714991584
 30
0.0
 10
40.80499180421522
 20
3.814965273642042
 30
0.0
 10
40.80875568641262
 20
3.819685519665324
 30
0.0
 10
40.81497151024313
 20
3.828701302017242
 30
0.0
 10
40.8174098170971
 20
3.832961889464171
 30
0.0
 10
40.821009823859
 20
3.841000649994777
 30
0.0
 10
40.82216494749454
 20
3.844799581546069
 30
0.0
 10
40.82311512503448
 20
3.851630917141261
 30
0.0
 10
40.82293326951169
 20
3.854699214544254
 30
0.0
 10
40.82125216130355
 20
3.860134489420179
 30
0.0
 10
40.81973820128274
 20
3.862486057511851
 30
0.0
 10
40.81549170476686
 20
3.866290956159596
 30
0.0
 10
40.81275396520881
 20
3.867773931941064
 30
0.0
 10
40.80599258902006
 20
3.869867591772306
 30
0.0
 10
40.80200370836402
 20
3.870456125526015
 30
0.0
 10
40.79302303216738
 20
3.870698478530477
 30
0.0
 10
40.78800522879421
 20
3.870361869148984
 30
0.0
 10
40.77682799914923
 20
3.868713369563553
 30
0.0
 10
40.77084478254757
 20
3.867426208488828
 30
0.0
 10
40.75814682263086
 20
3.863962098331414
 30
0.0
 10
40.75135113501613
 20
3.861756309090501
 30
0.0
 10
40.73728187554134
 20
3.856507923368297
 30
0.0
 10
40.73010148051614
 20
3.853507446992967
 30
0.0
 10
40.71544441303442
 20
3.84676257287456
 30
0.0
 10
40.70789663648137
 20
3.842974207544561
 30
0.0
 10
40.69317821954178
 20
3.834973822159058
 30
0.0
 10
40.6859366163874
 20
3.830734581932909
 30
0.0
 10
40.67169485920148
 20
3.821765413074028
 30
0.0
 10
40.66480795765646
 20
3.817102604644466
 30
0.0
 10
40.65828909731933
 20
3.812349214056214
 30
0.0
  0
SPLINE
  5
9B
330
1F
100
AcDbEntity
  8
0
  6
Continuous
 62
     7
370
    15
100
AcDbSpline
210
0.0
220
0.0
230
1.0
 70
    11
 71
     3
 72
    68
 73
    64
 74
     0
 42
0.000000001
 43
0.00000001
 40
0.0
 40
0.0
 40
0.0
 40
0.0
 40
0.0312499999999993
 40
0.0312499999999993
 40
0.0624999999999985
 40
0.0624999999999985
 40
0.0937499999999978
 40
0.0937499999999978
 40
0.124999999999997
 40
0.124999999999997
 40
0.1562499999999963
 40
0.1562499999999963
 40
0.1874999999999955
 40
0.1874999999999955
 40
0.2187499999999948
 40
0.2187499999999948
 40
0.249999999999994
 40
0.249999999999994
 40
0.2812499999999932
 40
0.2812499999999932
 40
0.3124999999999925
 40
0.3124999999999925
 40
0.3437499999999918
 40
0.3437499999999918
 40
0.374999999999991
 40
0.374999999999991
 40
0.4062499999999902
 40
0.4062499999999902
 40
0.4374999999999895
 40
0.4374999999999895
 40
0.4687499999999888
 40
0.4687499999999888
 40
0.499999999999988
 40
0.499999999999988
 40
0.5312499999999872
 40
0.5312499999999872
 40
0.5624999999999865
 40
0.5624999999999865
 40
0.6249999999999851
 40
0.6249999999999851
 40
0.6562499999999863
 40
0.6562499999999863
 40
0.6874999999999876
 40
0.6874999999999876
 40
0.7187499999999889
 40
0.7187499999999889
 40
0.7499999999999901
 40
0.7499999999999901
 40
0.7812499999999913
 40
0.7812499999999913
 40
0.8124999999999926
 40
0.8124999999999926
 40
0.8437499999999939
 40
0.8437499999999939
 40
0.8749999999999951
 40
0.8749999999999951
 40
0.9062499999999963
 40
0.9062499999999963
 40
0.9374999999999976
 40
0.9374999999999976
 40
0.9687499999999989
 40
0.9687499999999989
 40
1.0
 40
1.0
 40
1.0
 40
1.0
 10
40.65178118001732
 20
10.42384836359915
 30
0.0
 10
40.64566984827441
 20
10.42490796063654
 30
0.0
 10
40.64009051436837
 20
10.42548845129596
 30
0.0
 10
40.62992128898203
 20
10.42577322533555
 30
0.0
 10
40.62529832545426
 20
10.42546968462161
 30
0.0
 10
40.61724752493257
 20
10.42399617027332
 30
0.0
 10
40.61384957659115
 20
10.42284209345477
 30
0.0
 10
40.6082691581165
 20
10.41973348929267
 30
0.0
 10
40.60607768697638
 20
10.41775243241961
 30
0.0
 10
40.60308553839592
 20
10.41310246057174
 30
0.0
 10
40.60226095951258
 20
10.41043616416469
 30
0.0
 10
40.6019625426552
 20
10.40441530920465
 30
0.0
 10
40.60250914397477
 20
10.40103003081886
 30
0.0
 10
40.60496109937654
 20
10.39380932745766
 30
0.0
 10
40.60685578237072
 20
10.38995050783187
 30
0.0
 10
40.61202830589923
 20
10.38170874656785
 30
0.0
 10
40.61532616399592
 20
10.37731938792623
 30
0.0
 10
40.623062425225
 20
10.3683798252947
 30
0.0
 10
40.62752581119202
 20
10.36378325020043
 30
0.0
 10
40.63771098205018
 20
10.35430901893048
 30
0.0
 10
40.64334568263941
 20
10.34951974596011
 30
0.0
 10
40.65540453077082
 20
10.34006544337681
 30
0.0
 10
40.66193055419089
 20
10.33532142598751
 30
0.0
 10
40.67563067295285
 20
10.32607393993979
 30
0.0
 10
40.68268514504167
 20
10.32164469419856
 30
0.0
 10
40.69719521227738
 20
10.31316657820975
 30
0.0
 10
40.70471457599796
 20
10.30909167004628
 30
0.0
 10
40.71948406572885
 20
10.30170213019162
 30
0.0
 10
40.72680833241231
 20
10.29833941788513
 30
0.0
 10
40.74133792968984
 20
10.29229510127445
 30
0.0
 10
40.74835408422059
 20
10.28969496255705
 30
0.0
 10
40.76174423963532
 20
10.28536820061163
 30
0.0
 10
40.76821229760421
 20
10.28361810119719
 30
0.0
 10
40.78016258134518
 20
10.28109032223774
 30
0.0
 10
40.78565681309853
 20
10.28029945629039
 30
0.0
 10
40.79571741048339
 20
10.27964702195076
 30
0.0
 10
40.80026597084891
 20
10.27979828331473
 30
0.0
 10
40.81200310873085
 20
10.28162273549854
 30
0.0
 10
40.81755690178662
 20
10.28472033117124
 30
0.0
 10
40.82190777892516
 20
10.29171951542641
 30
0.0
 10
40.82272476069171
 20
10.29446740015477
 30
0.0
 10
40.82301967544473
 20
10.30069889734274
 30
0.0
 10
40.82250446105964
 20
10.30412842905205
 30
0.0
 10
40.82016838469216
 20
10.31159893548509
 30
0.0
 10
40.81831885028403
 20
10.31568646282301
 30
0.0
 10
40.81333300182803
 20
10.32427674341876
 30
0.0
 10
40.81022499086573
 20
10.32875260925676
 30
0.0
 10
40.80275362640673
 20
10.33806151065766
 30
0.0
 10
40.79832667226679
 20
10.34295278901176
 30
0.0
 10
40.78847889045718
 20
10.35271377024882
 30
0.0
 10
40.78305335246467
 20
10.35760475744751
 30
0.0
 10
40.7711538921614
 20
10.36739918784603
 30
0.0
 10
40.76465270604405
 20
10.37230994813559
 30
0.0
 10
40.75119844837889
 20
10.38164592905223
 30
0.0
 10
40.74417260624446
 20
10.38613530969537
 30
0.0
 10
40.72948845461094
 20
10.39473415355403
 30
0.0
 10
40.72209660431399
 20
10.39868696012208
 30
0.0
 10
40.70725318053612
 20
10.40591471334833
 30
0.0
 10
40.69971391455758
 20
10.40922067046257
 30
0.0
 10
40.68516179211708
 20
10.41490110220891
 30
0.0
 10
40.67810617363725
 20
10.41730449004398
 30
0.0
 10
40.66443312544332
 20
10.42126198943431
 30
0.0
 10
40.65789251176022
 20
10.42278876656176
 30
0.0
 10
40.65178118001732
 20
10.42384836359915
 30
0.0
  0
CIRCLE
  5
9C
330
1F
100
AcDbEntity
  8
0
  6
Continuous
 62
     7
370
    15
100
AcDbCircle
 10
38.8204191867
 20
7.0752025562
 30
0.0
 40
3.476808560949087
  0
SPLINE
  5
9D
330
1F
100
AcDbEntity
  8
0
  6
Continuous
 62
     7
370
    15
100
AcDbSpline
210
0.0
220
0.0
230
1.0
 70
     8
 71
     3
 72
    14
 73
    10
 74
     0
 42
0.000000001
 43
0.00000001
 40
0.0
 40
0.0
 40
0.0
 40
0.0
 40
0.1159125650727523
 40
0.289931782497033
 40
0.4533928716794475
 40
0.6074416453394856
 40
0.7580256228440125
 40
0.9119984351918313
 40
1.0
 40
1.0
 40
1.0
 40
1.0
 10
40.79588448808516
 20
10.27990666415449
 30
0.0
 10
40.79352712727728
 20
10.28484532665469
 30
0.0
 10
40.78763066712571
 20
10.29719838968057
 30
0.0
 10
40.7641186454486
 20
10.32098567549361
 30
0.0
 10
40.73137174461981
 20
10.34590186951078
 30
0.0
 10
40.69512520330972
 20
10.3665427382126
 30
0.0
 10
40.65974438155219
 20
10.38117987924502
 30
0.0
 10
40.63224447259077
 20
10.38830077832791
 30
0.0
 10
40.61878798912631
 20
10.38922052585934
 30
0.0
 10
40.61389411723952
 20
10.38955502087053
 30
0.0
  0
SPLINE
  5
9E
330
1F
100
AcDbEntity
  8
0
  6
Continuous
 62
     7
370
    15
100
AcDbSpline
210
0.0
220
0.0
230
1.0
 70
     8
 71
     3
 72
    15
 73
    11
 74
     0
 42
0.000000001
 43
0.00000001
 40
0.0
 40
0.0
 40
0.0
 40
0.0
 40
0.023274131488657
 40
0.1956475054046386
 40
0.3594098241706856
 40
0.5127403413557454
 40
0.6596383695577702
 40
0.80678758021296
 40
0.960101052238983
 40
1.0
 40
1.0
 40
1.0
 40
1.0
 10
40.60849901253189
 20
3.761446146441249
 30
0.0
 10
40.60943252134319
 20
3.761217679139133
 30
0.0
 10
40.61727980321886
 20
3.759297132383298
 30
0.0
 10
40.64240373381408
 20
3.764174511476095
 30
0.0
 10
40.67931731241774
 20
3.776440656819697
 30
0.0
 10
40.71699322656575
 20
3.795636308775808
 30
0.0
 10
40.75042973635973
 20
3.818181035530086
 30
0.0
 10
40.77666320046456
 20
3.841798499203295
 30
0.0
 10
40.79232968701552
 20
3.859825104128418
 30
0.0
 10
40.79513579359463
 20
3.867750845662599
 30
0.0
 10
40.79571526307146
 20
3.869387535207651
 30
0.0
  0
SPLINE
  5
9F
330
1F
100
AcDbEntity
  8
0
  6
Continuous
 62
     7
370
    15
100
AcDbSpline
210
0.0
220
0.0
230
1.0
 70
     8
 71
     3
 72
    12
 73
     8
 74
     0
 42
0.000000001
 43
0.00000001
 40
0.0
 40
0.0
 40
0.0
 40
0.0
 40
0.2048858218781762
 40
0.4099444048238909
 40
0.6121033107725663
 40
0.8184056440777686
 40
1.0
 40
1.0
 40
1.0
 40
1.0
 10
35.03801626552927
 20
7.132677691293417
 30
0.0
 10
35.03613995732685
 20
7.120378254971405
 30
0.0
 10
35.03238575880668
 20
7.09576901136208
 30
0.0
 10
35.03260908811557
 20
7.054848268191789
 30
0.0
 10
35.03735372529359
 20
7.016977088809622
 30
0.0
 10
35.04561964035142
 20
6.985512308445829
 30
0.0
 10
35.05309954120778
 20
6.97277140761665
 30
0.0
 10
35.05660126683755
 20
6.966806737785227
 30
0.0
  0
SPLINE
  5
A0
330
1F
100
AcDbEntity
  8
0
  6
Continuous
 62
     7
370
    15
100
AcDbSpline
210
0.0
220
0.0
230
1.0
 70
     8
 71
     3
 72
     9
 73
     5
 74
     0
 42
0.000000001
 43
0.00000001
 40
0.0
 40
0.0
 40
0.0
 40
0.0
 40
0.5853700671126856
 40
1.0
 40
1.0
 40
1.0
 40
1.0
 10
35.05646592186862
 20
7.18388641838719
 30
0.0
 10
35.05213912940181
 20
7.176082353750686
 30
0.0
 10
35.04474757880862
 20
7.162750505959085
 30
0.0
 10
35.03998922212283
 20
7.141492073410267
 30
0.0
 10
35.03801626500954
 20
7.132677690949261
 30
0.0
  0
ENDSEC
  0
SECTION
  2
OBJECTS
  0
DICTIONARY
  5
C
330
0
100
AcDbDictionary
281
     1
  3
ACAD_DETAILVIEWSTYLE
350
A5
  3
ACAD_GROUP
350
D
  3
ACAD_LAYOUT
350
1A
  3
ACAD_MATERIAL
350
43
  3
ACAD_MLEADERSTYLE
350
A4
  3
ACAD_MLINESTYLE
350
17
  3
ACAD_PLOTSETTINGS
350
19
  3
ACAD_PLOTSTYLENAME
350
E
  3
ACAD_SCALELIST
350
47
  3
ACAD_SECTIONVIEWSTYLE
350
A6
  3
ACAD_TABLESTYLE
350
A3
  3
AcDbVariableDictionary
350
A1
  0
DICTIONARY
  5
A5
102
{ACAD_REACTORS
330
C
102
}
330
C
100
AcDbDictionary
281
     1
  0
DICTIONARY
  5
D
102
{ACAD_REACTORS
330
C
102
}
330
C
100
AcDbDictionary
281
     1
  0
DICTIONARY
  5
1A
102
{ACAD_REACTORS
330
C
102
}
330
C
100
AcDbDictionary
281
     1
  3
Layout1
350
1E
  3
Layout2
350
26
  3
Model
350
22
  0
DICTIONARY
  5
43
102
{ACAD_REACTORS
330
C
102
}
330
C
100
AcDbDictionary
281
     1
  3
ByBlock
350
45
  3
ByLayer
350
44
  3
Global
350
46
  0
DICTIONARY
  5
A4
102
{ACAD_REACTORS
330
C
102
}
330
C
100
AcDbDictionary
281
     1
  0
DICTIONARY
  5
17
102
{ACAD_REACTORS
330
C
102
}
330
C
100
AcDbDictionary
281
     1
  3
Standard
350
18
  0
DICTIONARY
  5
19
102
{ACAD_REACTORS
330
C
102
}
330
C
100
AcDbDictionary
281
     1
  0
ACDBDICTIONARYWDFLT
  5
E
102
{ACAD_REACTORS
330
C
102
}
330
C
100
AcDbDictionary
281
     1
  3
Normal
350
F
100
AcDbDictionaryWithDefault
340
F
  0
DICTIONARY
  5
47
102
{ACAD_REACTORS
330
C
102
}
330
C
100
AcDbDictionary
281
     1
  3
A0
350
48
  3
A1
350
49
  3
A2
350
4A
  3
A3
350
4B
  3
A4
350
4C
  3
A5
350
4D
  3
A6
350
4E
  3
A7
350
4F
  3
A8
350
50
  3
A9
350
51
  3
B0
350
52
  3
B1
350
53
  3
B2
350
54
  3
B3
350
55
  3
B4
350
56
  3
B5
350
57
  3
B6
350
58
  3
B7
350
59
  3
B8
350
5A
  3
B9
350
5B
  3
C0
350
5C
  3
C1
350
5D
  3
C2
350
5E
  3
C3
350
5F
  3
C4
350
60
  3
C5
350
61
  3
C6
350
62
  3
C7
350
63
  3
C8
350
64
  3
C9
350
65
  3
D0
350
66
  3
D1
350
67
  3
D2
350
68
  0
DICTIONARY
  5
A6
102
{ACAD_REACTORS
330
C
102
}
330
C
100
AcDbDictionary
281
     1
  0
DICTIONARY
  5
A3
102
{ACAD_REACTORS
330
C
102
}
330
C
100
AcDbDictionary
281
     1
  0
DICTIONARY
  5
A1
102
{ACAD_REACTORS
330
C
102
}
330
C
100
AcDbDictionary
281
     1
  3
CANNOSCALE
350
A2
  0
LAYOUT
  5
1E
102
{ACAD_REACTORS
330
1A
102
}
330
1A
100
AcDbPlotSettings
  1

  2
none_device
  4

  6

 40
0.0
 41
0.0
 42
0.0
 43
0.0
 44
0.0
 45
0.0
 46
0.0
 47
0.0
 48
0.0
 49
0.0
140
0.0
141
0.0
142
1.0
143
1.0
 70
   688
 72
     0
 73
     0
 74
     5
  7

 75
    16
 76
     0
 77
     2
 78
   300
147
1.0
148
0.0
149
0.0
100
AcDbLayout
  1
Layout1
 70
     1
 71
     1
 10
0.0
 20
0.0
 11
12.0
 21
9.0
 12
0.0
 22
0.0
 32
0.0
 14
1.0000000000E+20
 24
1.0000000000E+20
 34
1.0000000000E+20
 15
-1.0000000000E+20
 25
-1.0000000000E+20
 35
-1.0000000000E+20
146
0.0
 13
0.0
 23
0.0
 33
0.0
 16
1.0
 26
0.0
 36
0.0
 17
0.0
 27
1.0
 37
0.0
 76
     0
330
1B
  0
LAYOUT
  5
26
102
{ACAD_REACTORS
330
1A
102
}
330
1A
100
AcDbPlotSettings
  1

  2
none_device
  4

  6

 40
0.0
 41
0.0
 42
0.0
 43
0.0
 44
0.0
 45
0.0
 46
0.0
 47
0.0
 48
0.0
 49
0.0
140
0.0
141
0.0
142
1.0
143
1.0
 70
   688
 72
     0
 73
     0
 74
     5
  7

 75
    16
 76
     0
 77
     2
 78
   300
147
1.0
148
0.0
149
0.0
100
AcDbLayout
  1
Layout2
 70
     1
 71
     2
 10
0.0
 20
0.0
 11
0.0
 21
0.0
 12
0.0
 22
0.0
 32
0.0
 14
0.0
 24
0.0
 34
0.0
 15
0.0
 25
0.0
 35
0.0
146
0.0
 13
0.0
 23
0.0
 33
0.0
 16
1.0
 26
0.0
 36
0.0
 17
0.0
 27
1.0
 37
0.0
 76
     0
330
23
  0
LAYOUT
  5
22
102
{ACAD_REACTORS
330
1A
102
}
330
1A
100
AcDbPlotSettings
  1

  2
none_device
  4
Letter_(8.50_x_11.00_Inches)
  6

 40
6.35
 41
6.35
 42
6.35000508
 43
6.35000508
 44
215.9
 45
279.4
 46
0.0
 47
0.0
 48
0.0
 49
0.0
140
0.0
141
0.0
142
1.0
143
1.0
 70
  1712
 72
     0
 73
     0
 74
     0
  7

 75
     0
 76
     0
 77
     2
 78
   300
147
1.0
148
0.0
149
0.0
100
AcDbLayout
  1
Model
 70
     1
 71
     0
 10
0.0
 20
0.0
 11
78.7401574803
 21
39.3700787402
 12
0.0
 22
0.0
 32
0.0
 14
0.0
 24
0.0
 34
0.0
 15
78.7401574803
 25
39.3700787402
 35
0.0
146
0.0
 13
0.0
 23
0.0
 33
0.0
 16
1.0
 26
0.0
 36
0.0
 17
0.0
 27
1.0
 37
0.0
 76
     0
330
1F
331
29
  0
MATERIAL
  5
45
102
{ACAD_REACTORS
330
43
102
}
330
43
100
AcDbMaterial
  1
ByBlock
  0
MATERIAL
  5
44
102
{ACAD_REACTORS
330
43
102
}
330
43
100
AcDbMaterial
  1
ByLayer
  0
MATERIAL
  5
46
102
{ACAD_REACTORS
330
43
102
}
330
43
100
AcDbMaterial
  1
Global
  0
MLINESTYLE
  5
18
102
{ACAD_REACTORS
330
17
102
}
330
17
100
AcDbMlineStyle
  2
Standard
 70
     0
  3

 62
   256
 51
90.0
 52
90.0
 71
     2
 49
0.5
 62
   256
  6
BYLAYER
 49
-0.5
 62
   256
  6
BYLAYER
  0
ACDBPLACEHOLDER
  5
F
102
{ACAD_REACTORS
330
E
102
}
330
E
  0
SCALE
  5
48
102
{ACAD_REACTORS
330
47
102
}
330
47
100
AcDbScale
 70
     0
300
1:1
140
1.0
141
1.0
290
     1
  0
SCALE
  5
49
102
{ACAD_REACTORS
330
47
102
}
330
47
100
AcDbScale
 70
     0
300
1:2
140
1.0
141
2.0
290
     0
  0
SCALE
  5
4A
102
{ACAD_REACTORS
330
47
102
}
330
47
100
AcDbScale
 70
     0
300
1:4
140
1.0
141
4.0
290
     0
  0
SCALE
  5
4B
102
{ACAD_REACTORS
330
47
102
}
330
47
100
AcDbScale
 70
     0
300
1:5
140
1.0
141
5.0
290
     0
  0
SCALE
  5
4C
102
{ACAD_REACTORS
330
47
102
}
330
47
100
AcDbScale
 70
     0
300
1:8
140
1.0
141
8.0
290
     0
  0
SCALE
  5
4D
102
{ACAD_REACTORS
330
47
102
}
330
47
100
AcDbScale
 70
     0
300
1:10
140
1.0
141
10.0
290
     0
  0
SCALE
  5
4E
102
{ACAD_REACTORS
330
47
102
}
330
47
100
AcDbScale
 70
     0
300
1:16
140
1.0
141
16.0
290
     0
  0
SCALE
  5
4F
102
{ACAD_REACTORS
330
47
102
}
330
47
100
AcDbScale
 70
     0
300
1:20
140
1.0
141
20.0
290
     0
  0
SCALE
  5
50
102
{ACAD_REACTORS
330
47
102
}
330
47
100
AcDbScale
 70
     0
300
1:30
140
1.0
141
30.0
290
     0
  0
SCALE
  5
51
102
{ACAD_REACTORS
330
47
102
}
330
47
100
AcDbScale
 70
     0
300
1:40
140
1.0
141
40.0
290
     0
  0
SCALE
  5
52
102
{ACAD_REACTORS
330
47
102
}
330
47
100
AcDbScale
 70
     0
300
1:50
140
1.0
141
50.0
290
     0
  0
SCALE
  5
53
102
{ACAD_REACTORS
330
47
102
}
330
47
100
AcDbScale
 70
     0
300
1:100
140
1.0
141
100.0
290
     0
  0
SCALE
  5
54
102
{ACAD_REACTORS
330
47
102
}
330
47
100
AcDbScale
 70
     0
300
2:1
140
2.0
141
1.0
290
     0
  0
SCALE
  5
55
102
{ACAD_REACTORS
330
47
102
}
330
47
100
AcDbScale
 70
     0
300
4:1
140
4.0
141
1.0
290
     0
  0
SCALE
  5
56
102
{ACAD_REACTORS
330
47
102
}
330
47
100
AcDbScale
 70
     0
300
8:1
140
8.0
141
1.0
290
     0
  0
SCALE
  5
57
102
{ACAD_REACTORS
330
47
102
}
330
47
100
AcDbScale
 70
     0
300
10:1
140
10.0
141
1.0
290
     0
  0
SCALE
  5
58
102
{ACAD_REACTORS
330
47
102
}
330
47
100
AcDbScale
 70
     0
300
100:1
140
100.0
141
1.0
290
     0
  0
SCALE
  5
59
102
{ACAD_REACTORS
330
47
102
}
330
47
100
AcDbScale
 70
     0
300
1/128" = 1'-0"
140
0.0078125
141
12.0
290
     0
  0
SCALE
  5
5A
102
{ACAD_REACTORS
330
47
102
}
330
47
100
AcDbScale
 70
     0
300
1/64" = 1'-0"
140
0.015625
141
12.0
290
     0
  0
SCALE
  5
5B
102
{ACAD_REACTORS
330
47
102
}
330
47
100
AcDbScale
 70
     0
300
1/32" = 1'-0"
140
0.03125
141
12.0
290
     0
  0
SCALE
  5
5C
102
{ACAD_REACTORS
330
47
102
}
330
47
100
AcDbScale
 70
     0
300
1/16" = 1'-0"
140
0.0625
141
12.0
290
     0
  0
SCALE
  5
5D
102
{ACAD_REACTORS
330
47
102
}
330
47
100
AcDbScale
 70
     0
300
3/32" = 1'-0"
140
0.09375
141
12.0
290
     0
  0
SCALE
  5
5E
102
{ACAD_REACTORS
330
47
102
}
330
47
100
AcDbScale
 70
     0
300
1/8" = 1'-0"
140
0.125
141
12.0
290
     0
  0
SCALE
  5
5F
102
{ACAD_REACTORS
330
47
102
}
330
47
100
AcDbScale
 70
     0
300
3/16" = 1'-0"
140
0.1875
141
12.0
290
     0
  0
SCALE
  5
60
102
{ACAD_REACTORS
330
47
102
}
330
47
100
AcDbScale
 70
     0
300
1/4" = 1'-0"
140
0.25
141
12.0
290
     0
  0
SCALE
  5
61
102
{ACAD_REACTORS
330
47
102
}
330
47
100
AcDbScale
 70
     0
300
3/8" = 1'-0"
140
0.375
141
12.0
290
     0
  0
SCALE
  5
62
102
{ACAD_REACTORS
330
47
102
}
330
47
100
AcDbScale
 70
     0
300
1/2" = 1'-0"
140
0.5
141
12.0
290
     0
  0
SCALE
  5
63
102
{ACAD_REACTORS
330
47
102
}
330
47
100
AcDbScale
 70
     0
300
3/4" = 1'-0"
140
0.75
141
12.0
290
     0
  0
SCALE
  5
64
102
{ACAD_REACTORS
330
47
102
}
330
47
100
AcDbScale
 70
     0
300
1" = 1'-0"
140
1.0
141
12.0
290
     0
  0
SCALE
  5
65
102
{ACAD_REACTORS
330
47
102
}
330
47
100
AcDbScale
 70
     0
300
1-1/2" = 1'-0"
140
1.5
141
12.0
290
     0
  0
SCALE
  5
66
102
{ACAD_REACTORS
330
47
102
}
330
47
100
AcDbScale
 70
     0
300
3" = 1'-0"
140
3.0
141
12.0
290
     0
  0
SCALE
  5
67
102
{ACAD_REACTORS
330
47
102
}
330
47
100
AcDbScale
 70
     0
300
6" = 1'-0"
140
6.0
141
12.0
290
     0
  0
SCALE
  5
68
102
{ACAD_REACTORS
330
47
102
}
330
47
100
AcDbScale
 70
     0
300
1'-0" = 1'-0"
140
12.0
141
12.0
290
     0
  0
DICTIONARYVAR
  5
A2
102
{ACAD_REACTORS
330
A1
102
}
330
A1
100
DictionaryVariables
280
     0
  1
1:1
  0
ENDSEC
  0
EOF
