  0
SECTION
  2
HEADER
  9
$ACADVER
  1
AC1018
  9
$ACADMAINTVER
 70
     0
  9
$DWGCODEPAGE
  3
ANSI_1252
  9
$INSBASE
 10
0.0
 20
0.0
 30
0.0
  9
$EXTMIN
 10
0.0
 20
0.0
 30
0.0
  9
$EXTMAX
 10
78.7401574803
 20
59.0551181102
 30
0.0
  9
$LIMMIN
 10
0.0
 20
0.0
  9
$LIMMAX
 10
78.7401574803
 20
59.0551181102
  9
$ORTHOMODE
 70
     0
  9
$REGENMODE
 70
     1
  9
$FILLMODE
 70
     1
  9
$QTEXTMODE
 70
     0
  9
$MIRRTEXT
 70
     1
  9
$LTSCALE
 40
1.0
  9
$ATTMODE
 70
     1
  9
$TEXTSIZE
 40
0.1377952756
  9
$TRACEWID
 40
0.05
  9
$TEXTSTYLE
  7
STANDARD
  9
$CLAYER
  8
0
  9
$CELTYPE
  6
ByLayer
  9
$CECOLOR
 62
   256
  9
$CELTSCALE
 40
1.0
  9
$DISPSILH
 70
     0
  9
$DIMSCALE
 40
1.0
  9
$DIMASZ
 40
0.2362204724
  9
$DIMEXO
 40
0.0393700787
  9
$DIMDLI
 40
0.38
  9
$DIMRND
 40
0.0
  9
$DIMDLE
 40
0.0
  9
$DIMEXE
 40
0.0393700787
  9
$DIMTP
 40
0.0
  9
$DIMTM
 40
0.0
  9
$DIMTXT
 40
0.1377952756
  9
$DIMCEN
 40
0.09
  9
$DIMTSZ
 40
0.0
  9
$DIMTOL
 70
     0
  9
$DIMLIM
 70
     0
  9
$DIMTIH
 70
     1
  9
$DIMTOH
 70
     1
  9
$DIMSE1
 70
     0
  9
$DIMSE2
 70
     0
  9
$DIMTAD
 70
     1
  9
$DIMZIN
 70
     0
  9
$DIMBLK
  1

  9
$DIMASO
 70
     1
  9
$DIMSHO
 70
     1
  9
$DIMPOST
  1

  9
$DIMAPOST
  1

  9
$DIMALT
 70
     0
  9
$DIMALTD
 70
     2
  9
$DIMALTF
 40
25.4
  9
$DIMLFAC
 40
1.0
  9
$DIMTOFL
 70
     0
  9
$DIMTVP
 40
0.0
  9
$DIMTIX
 70
     0
  9
$DIMSOXD
 70
     0
  9
$DIMSAH
 70
     0
  9
$DIMBLK1
  1

  9
$DIMBLK2
  1

  9
$DIMSTYLE
  2
Standard
  9
$DIMCLRD
 70
     0
  9
$DIMCLRE
 70
     0
  9
$DIMCLRT
 70
     0
  9
$DIMTFAC
 40
1.0
  9
$DIMGAP
 40
0.06
  9
$DIMJUST
 70
     0
  9
$DIMSD1
 70
     0
  9
$DIMSD2
 70
     0
  9
$DIMTOLJ
 70
     1
  9
$DIMTZIN
 70
     0
  9
$DIMALTZ
 70
     0
  9
$DIMALTTZ
 70
     0
  9
$DIMUPT
 70
     0
  9
$DIMDEC
 70
     3
  9
$DIMTDEC
 70
     3
  9
$DIMALTU
 70
     2
  9
$DIMALTTD
 70
     2
  9
$DIMTXSTY
  7
STANDARD
  9
$DIMAUNIT
 70
     0
  9
$DIMADEC
 70
     2
  9
$DIMALTRND
 40
0.0
  9
$DIMAZIN
 70
     0
  9
$DIMDSEP
 70
    46
  9
$DIMATFIT
 70
     3
  9
$DIMFRAC
 70
     0
  9
$DIMLDRBLK
  1

  9
$DIMLUNIT
 70
     2
  9
$DIMLWD
 70
    -2
  9
$DIMLWE
 70
    -2
  9
$DIMTMOVE
 70
     0
  9
$LUNITS
 70
     2
  9
$LUPREC
 70
     2
  9
$SKETCHINC
 40
0.1
  9
$FILLETRAD
 40
0.5
  9
$AUNITS
 70
     0
  9
$AUPREC
 70
     2
  9
$MENU
  1
.
  9
$ELEVATION
 40
0.0
  9
$PELEVATION
 40
0.0
  9
$THICKNESS
 40
0.0
  9
$LIMCHECK
 70
     0
  9
$CHAMFERA
 40
0.0
  9
$CHAMFERB
 40
0.0
  9
$CHAMFERC
 40
0.0
  9
$CHAMFERD
 40
0.0
  9
$SKPOLY
 70
     0
  9
$TDCREATE
 40
2457707.706992488
  9
$TDUCREATE
 40
2457707.956992488
  9
$TDUPDATE
 40
2457707.706992639
  9
$TDUUPDATE
 40
2457707.956992639
  9
$TDINDWG
 40
0.0000000116
  9
$TDUSRTIMER
 40
0.0000000116
  9
$USRTIMER
 70
     1
  9
$ANGBASE
 50
0.0
  9
$ANGDIR
 70
     0
  9
$PDMODE
 70
     0
  9
$PDSIZE
 40
-1.0
  9
$PLINEWID
 40
0.0
  9
$SPLFRAME
 70
     0
  9
$SPLINETYPE
 70
     6
  9
$SPLINESEGS
 70
     8
  9
$HANDSEED
  5
A6
  9
$SURFTAB1
 70
     6
  9
$SURFTAB2
 70
     6
  9
$SURFTYPE
 70
     6
  9
$SURFU
 70
     6
  9
$SURFV
 70
     6
  9
$UCSBASE
  2

  9
$UCSNAME
  2

  9
$UCSORG
 10
0.0
 20
0.0
 30
0.0
  9
$UCSXDIR
 10
1.0
 20
0.0
 30
0.0
  9
$UCSYDIR
 10
0.0
 20
1.0
 30
0.0
  9
$UCSORTHOREF
  2

  9
$UCSORTHOVIEW
 70
     0
  9
$UCSORGTOP
 10
0.0
 20
0.0
 30
0.0
  9
$UCSORGBOTTOM
 10
0.0
 20
0.0
 30
0.0
  9
$UCSORGLEFT
 10
0.0
 20
0.0
 30
0.0
  9
$UCSORGRIGHT
 10
0.0
 20
0.0
 30
0.0
  9
$UCSORGFRONT
 10
0.0
 20
0.0
 30
0.0
  9
$UCSORGBACK
 10
0.0
 20
0.0
 30
0.0
  9
$PUCSBASE
  2

  9
$PUCSNAME
  2

  9
$PUCSORG
 10
0.0
 20
0.0
 30
0.0
  9
$PUCSXDIR
 10
1.0
 20
0.0
 30
0.0
  9
$PUCSYDIR
 10
0.0
 20
1.0
 30
0.0
  9
$PUCSORTHOREF
  2

  9
$PUCSORTHOVIEW
 70
     0
  9
$PUCSORGTOP
 10
0.0
 20
0.0
 30
0.0
  9
$PUCSORGBOTTOM
 10
0.0
 20
0.0
 30
0.0
  9
$PUCSORGLEFT
 10
0.0
 20
0.0
 30
0.0
  9
$PUCSORGRIGHT
 10
0.0
 20
0.0
 30
0.0
  9
$PUCSORGFRONT
 10
0.0
 20
0.0
 30
0.0
  9
$PUCSORGBACK
 10
0.0
 20
0.0
 30
0.0
  9
$USERI1
 70
     0
  9
$USERI2
 70
     0
  9
$USERI3
 70
     0
  9
$USERI4
 70
     0
  9
$USERI5
 70
     0
  9
$USERR1
 40
0.0
  9
$USERR2
 40
0.0
  9
$USERR3
 40
0.0
  9
$USERR4
 40
0.0
  9
$USERR5
 40
0.0
  9
$WORLDVIEW
 70
     1
  9
$SHADEDGE
 70
     3
  9
$SHADEDIF
 70
    70
  9
$TILEMODE
 70
     1
  9
$MAXACTVP
 70
    64
  9
$PINSBASE
 10
0.0
 20
0.0
 30
0.0
  9
$PLIMCHECK
 70
     0
  9
$PEXTMIN
 10
1.0000000000E+20
 20
1.0000000000E+20
 30
1.0000000000E+20
  9
$PEXTMAX
 10
-1.0000000000E+20
 20
-1.0000000000E+20
 30
-1.0000000000E+20
  9
$PLIMMIN
 10
0.0
 20
0.0
  9
$PLIMMAX
 10
12.0
 20
9.0
  9
$UNITMODE
 70
     0
  9
$VISRETAIN
 70
     1
  9
$PLINEGEN
 70
     0
  9
$PSLTSCALE
 70
     1
  9
$TREEDEPTH
 70
  3020
  9
$CMLSTYLE
  2
Standard
  9
$CMLJUST
 70
     0
  9
$CMLSCALE
 40
1.0
  9
$PROXYGRAPHICS
 70
     1
  9
$MEASUREMENT
 70
     0
  9
$CELWEIGHT
370
    -1
  9
$ENDCAPS
280
     0
  9
$JOINSTYLE
280
     0
  9
$LWDISPLAY
290
     1
  9
$INSUNITS
 70
     1
  9
$HYPERLINKBASE
  1

  9
$STYLESHEET
  1

  9
$XEDIT
290
     1
  9
$CEPSNTYPE
380
     0
  9
$PSTYLEMODE
290
     1
  9
$FINGERPRINTGUID
  2
{4040A515-1FA8-42AA-8E57-94A54F7D7090}
  9
$VERSIONGUID
  2
{FAEB1C32-E019-11D5-929B-00C0DF256EC4}
  9
$EXTNAMES
290
     1
  9
$PSVPSCALE
 40
0.0
  9
$OLESTARTUP
290
     0
  9
$SORTENTS
280
   127
  9
$INDEXCTL
280
     0
  9
$HIDETEXT
280
     1
  9
$XCLIPFRAME
290
     0
  9
$HALOGAP
280
     0
  9
$OBSCOLOR
 70
   257
  9
$OBSLTYPE
280
     0
  9
$INTERSECTIONDISPLAY
280
     0
  9
$INTERSECTIONCOLOR
 70
   257
  9
$DIMASSOC
280
     2
  9
$PROJECTNAME
  1

  0
ENDSEC
  0
SECTION
  2
CLASSES
  0
CLASS
  1
ACDBDICTIONARYWDFLT
  2
AcDbDictionaryWithDefault
  3
ObjectDBX Classes
 90
        0
 91
        4
280
     0
281
     0
  0
CLASS
  1
VISUALSTYLE
  2
AcDbVisualStyle
  3
ObjectDBX Classes
 90
     4095
 91
        4
280
     0
281
     0
  0
CLASS
  1
MATERIAL
  2
AcDbMaterial
  3
ObjectDBX Classes
 90
     1153
 91
        4
280
     0
281
     0
  0
CLASS
  1
SCALE
  2
AcDbScale
  3
ObjectDBX Classes
 90
     1153
 91
        4
280
     0
281
     0
  0
CLASS
  1
SUN
  2
AcDbSun
  3
SCENEOE
 90
     1153
 91
        4
280
     0
281
     0
  0
CLASS
  1
DICTIONARYVAR
  2
AcDbDictionaryVar
  3
ObjectDBX Classes
 90
        0
 91
        4
280
     0
281
     0
  0
ENDSEC
  0
SECTION
  2
TABLES
  0
TABLE
  2
VPORT
  5
8
330
0
100
AcDbSymbolTable
 70
     1
  0
VPORT
  5
29
330
8
100
AcDbSymbolTableRecord
100
AcDbViewportTableRecord
  2
*Active
 70
     0
 10
0.0
 20
0.0
 11
1.0
 21
1.0
 12
39.3700787402
 22
29.5275590551
 13
0.0
 23
0.0
 14
0.5
 24
0.5
 15
0.5
 25
0.5
 16
0.0
 26
0.0
 36
1.0
 17
0.0
 27
0.0
 37
0.0
 40
59.0551181102
 41
1.3333333333
 42
50.0
 43
0.0
 44
0.0
 50
0.0
 51
0.0
 71
     0
 72
  2000
 73
     1
 74
     3
 75
     0
 76
     0
 77
     0
 78
     0
281
     0
 65
     1
110
0.0
120
0.0
130
0.0
111
1.0
121
0.0
131
0.0
112
0.0
122
1.0
132
0.0
 79
     0
146
0.0
  0
ENDTAB
  0
TABLE
  2
LTYPE
  5
5
330
0
100
AcDbSymbolTable
 70
     6
  0
LTYPE
  5
14
330
5
100
AcDbSymbolTableRecord
100
AcDbLinetypeTableRecord
  2
ByBlock
 70
     0
  3

 72
    65
 73
     0
 40
0.0
  0
LTYPE
  5
15
330
5
100
AcDbSymbolTableRecord
100
AcDbLinetypeTableRecord
  2
ByLayer
 70
     0
  3

 72
    65
 73
     0
 40
0.0
  0
LTYPE
  5
16
330
5
100
AcDbSymbolTableRecord
100
AcDbLinetypeTableRecord
  2
Continuous
 70
     0
  3
Solid line
 72
    65
 73
     0
 40
0.0
  0
LTYPE
  5
6A
330
5
100
AcDbSymbolTableRecord
100
AcDbLinetypeTableRecord
  2
HIDDEN
 70
     0
  3
Hidden __ __ __ __ __ __ __ __ __ __ __ __ __ __
 72
    65
 73
     2
 40
0.075
 49
0.05
 74
     0
 49
-0.025
 74
     0
  0
LTYPE
  5
6B
330
5
100
AcDbSymbolTableRecord
100
AcDbLinetypeTableRecord
  2
PHANTOM
 70
     0
  3
Phantom ______  __  __  ______  __  __  ______
 72
    65
 73
     6
 40
0.5
 49
0.25
 74
     0
 49
-0.05
 74
     0
 49
0.05
 74
     0
 49
-0.05
 74
     0
 49
0.05
 74
     0
 49
-0.05
 74
     0
  0
LTYPE
  5
6C
330
5
100
AcDbSymbolTableRecord
100
AcDbLinetypeTableRecord
  2
CENTER
 70
     0
  3
Center ____ _ ____ _ ____ _ ____ _ ____ _ ____
 72
    65
 73
     4
 40
0.4
 49
0.25
 74
     0
 49
-0.05
 74
     0
 49
0.05
 74
     0
 49
-0.05
 74
     0
  0
LTYPE
  5
6D
330
5
100
AcDbSymbolTableRecord
100
AcDbLinetypeTableRecord
  2
CENTERX2
 70
     0
  3
Center (2x) ________  __  ________  __  _____
 72
    65
 73
     4
 40
0.8
 49
0.5
 74
     0
 49
-0.1
 74
     0
 49
0.1
 74
     0
 49
-0.1
 74
     0
  0
LTYPE
  5
6E
330
5
100
AcDbSymbolTableRecord
100
AcDbLinetypeTableRecord
  2
DOT2
 70
     0
  3
Dot (.5x) ........................................
 72
    65
 73
     2
 40
0.025
 49
0.0
 74
     0
 49
-0.025
 74
     0
  0
ENDTAB
  0
TABLE
  2
LAYER
  5
2
330
0
100
AcDbSymbolTable
 70
     1
  0
LAYER
  5
10
330
2
100
AcDbSymbolTableRecord
100
AcDbLayerTableRecord
  2
0
 70
     0
 62
     7
  6
Continuous
370
    -3
390
F
  0
ENDTAB
  0
TABLE
  2
STYLE
  5
3
330
0
100
AcDbSymbolTable
 70
     1
  0
STYLE
  5
11
330
3
100
AcDbSymbolTableRecord
100
AcDbTextStyleTableRecord
  2
STANDARD
 70
     0
 40
0.0
 41
1.0
 50
0.0
 71
     0
 42
0.1377952756
  3
GOTHIC.TTF
  4

1001
ACAD
1000
CENTURY GOTHIC
1071
       34
  0
ENDTAB
  0
TABLE
  2
VIEW
  5
6
330
0
100
AcDbSymbolTable
 70
     0
  0
ENDTAB
  0
TABLE
  2
UCS
  5
7
330
0
100
AcDbSymbolTable
 70
     0
  0
ENDTAB
  0
TABLE
  2
APPID
  5
9
330
0
100
AcDbSymbolTable
 70
     1
  0
APPID
  5
12
330
9
100
AcDbSymbolTableRecord
100
AcDbRegAppTableRecord
  2
ACAD
 70
     0
  0
ENDTAB
  0
TABLE
  2
DIMSTYLE
  5
A
330
0
100
AcDbSymbolTable
 70
     1
100
AcDbDimStyleTable
  0
DIMSTYLE
105
27
330
A
100
AcDbSymbolTableRecord
100
AcDbDimStyleTableRecord
  2
Standard
 70
     0
178
     0
340
11
  0
ENDTAB
  0
TABLE
  2
BLOCK_RECORD
  5
1
330
0
100
AcDbSymbolTable
 70
     1
  0
BLOCK_RECORD
  5
1F
330
1
100
AcDbSymbolTableRecord
100
AcDbBlockTableRecord
  2
*Model_Space
340
22
  0
BLOCK_RECORD
  5
1B
330
1
100
AcDbSymbolTableRecord
100
AcDbBlockTableRecord
  2
*Paper_Space
340
1E
  0
BLOCK_RECORD
  5
23
330
1
100
AcDbSymbolTableRecord
100
AcDbBlockTableRecord
  2
*Paper_Space0
340
26
  0
ENDTAB
  0
ENDSEC
  0
SECTION
  2
BLOCKS
  0
BLOCK
  5
20
330
1F
100
AcDbEntity
  8
0
100
AcDbBlockBegin
  2
*Model_Space
 70
     0
 10
0.0
 20
0.0
 30
0.0
  3
*Model_Space
  1
*Model_Space
  0
ENDBLK
  5
21
330
1F
100
AcDbEntity
  8
0
100
AcDbBlockEnd
  0
BLOCK
  5
1C
330
1B
100
AcDbEntity
 67
     1
  8
0
100
AcDbBlockBegin
  2
*Paper_Space
 70
     0
 10
0.0
 20
0.0
 30
0.0
  3
*Paper_Space
  1
*Paper_Space
  0
ENDBLK
  5
1D
330
1B
100
AcDbEntity
 67
     1
  8
0
100
AcDbBlockEnd
  0
BLOCK
  5
24
330
23
100
AcDbEntity
  8
0
100
AcDbBlockBegin
  2
*Paper_Space0
 70
     0
 10
0.0
 20
0.0
 30
0.0
  3
*Paper_Space0
  1
*Paper_Space0
  0
ENDBLK
  5
25
330
23
100
AcDbEntity
  8
0
100
AcDbBlockEnd
  0
ENDSEC
  0
SECTION
  2
ENTITIES
  0
ARC
  5
6F
330
1F
100
AcDbEntity
  8
0
  6
Continuous
 62
     7
370
    15
100
AcDbCircle
 10
45.6199365761
 20
23.0512992718
 30
0.0
 40
0.25
100
AcDbArc
 50
270.0
 51
8.1757201544
  0
ARC
  5
70
330
1F
100
AcDbEntity
  8
0
  6
Continuous
 62
     7
370
    15
100
AcDbCircle
 10
33.1957048898
 20
23.0512992718
 30
0.0
 40
0.2500000000000033
100
AcDbArc
 50
171.8242798456
 51
270.0
  0
ARC
  5
71
330
1F
100
AcDbEntity
  8
0
  6
Continuous
 62
     7
370
    15
100
AcDbCircle
 10
102.2368065496
 20
13.1321873358
 30
0.0
 40
70.00000000000001
100
AcDbArc
 50
163.4129000397
 51
171.8242798456
  0
ARC
  5
72
330
1F
100
AcDbEntity
  8
0
  6
Continuous
 62
     7
370
    15
100
AcDbCircle
 10
102.2368065496
 20
13.1321873358
 30
0.0
 40
70.0
100
AcDbArc
 50
162.6649583926
 51
163.2015416719
  0
ARC
  5
73
330
1F
100
AcDbEntity
  8
0
  6
Continuous
 62
     7
370
    15
100
AcDbCircle
 10
-23.4211650837
 20
13.1321873358
 30
0.0
 40
70.0
100
AcDbArc
 50
8.1757201544
 51
17.3350416074
  0
LINE
  5
74
330
1F
100
AcDbEntity
  8
0
  6
Continuous
 62
     7
370
    15
100
AcDbLine
 10
45.6199364247
 20
22.8012992792
 30
0.0
 11
33.1957049105
 21
22.8012992792
 31
0.0
  0
LINE
  5
75
330
1F
100
AcDbEntity
  8
0
  6
Continuous
 62
     7
370
    15
100
AcDbLine
 10
43.3993474905
 20
33.9892990745
 30
0.0
 11
35.4162941381
 21
33.9892990745
 31
0.0
  0
SPLINE
  5
76
330
1F
100
AcDbEntity
  8
0
  6
Continuous
 62
     7
370
    15
100
AcDbSpline
210
0.0
220
0.0
230
1.0
 70
     8
 71
     3
 72
    17
 73
    13
 74
     0
 42
0.000000001
 43
0.00000001
 40
0.0
 40
0.0
 40
0.0
 40
0.0
 40
0.08260031826642
 40
0.1827350872299641
 40
0.2854483339091043
 40
0.3928027075180792
 40
0.5047772485824553
 40
0.6191847805765478
 40
0.7327124417551215
 40
0.8427298115976443
 40
0.9485230951028898
 40
0.9999999999999999
 40
0.9999999999999999
 40
0.9999999999999999
 40
0.9999999999999999
 10
35.14975225717883
 20
33.11526559806133
 30
0.0
 10
35.14990688932928
 20
33.11573645841322
 30
0.0
 10
35.15024897904629
 20
33.1167781336668
 30
0.0
 10
35.1557629760063
 20
33.13370025687829
 30
0.0
 10
35.16461660536569
 20
33.16130291239786
 30
0.0
 10
35.17624038455654
 20
33.19836070600442
 30
0.0
 10
35.18926439541135
 20
33.24112066805865
 30
0.0
 10
35.20208225272363
 20
33.28462187100061
 30
0.0
 10
35.21303633701075
 20
33.32305713299955
 30
0.0
 10
35.22055853435156
 20
33.35017209896806
 30
0.0
 10
35.22429994110235
 20
33.36390469955597
 30
0.0
 10
35.22403369357761
 20
33.36292721840678
 30
0.0
 10
35.22394654674674
 20
33.36260727408252
 30
0.0
  0
SPLINE
  5
77
330
1F
100
AcDbEntity
  8
0
  6
Continuous
 62
     7
370
    15
100
AcDbSpline
210
0.0
220
0.0
230
1.0
 70
    11
 71
     3
 72
    26
 73
    22
 74
     0
 42
0.000000001
 43
0.00000001
 40
0.0
 40
0.0
 40
0.0
 40
0.0
 40
0.0537388605206048
 40
0.1074020774821953
 40
0.1629260447127868
 40
0.2199890833755288
 40
0.2769704345103661
 40
0.3324106295834951
 40
0.3857294913350532
 40
0.4372992930711055
 40
0.4880530160606402
 40
0.5390759554233421
 40
0.5913370772006343
 40
0.6454703376213791
 40
0.7015200740396044
 40
0.7587011082646654
 40
0.8154517940599842
 40
0.8701454580774598
 40
0.9221832687186746
 40
0.972434714774398
 40
1.0
 40
1.0
 40
1.0
 40
1.0
 10
41.58592149266928
 20
33.1292527431473
 30
0.0
 10
41.59484403634521
 20
33.13721001076887
 30
0.0
 10
41.61267656420193
 20
33.15311334525268
 30
0.0
 10
41.62644231862166
 20
33.18977938255828
 30
0.0
 10
41.6287837410967
 20
33.23160226388114
 30
0.0
 10
41.61797642464426
 20
33.27552974817752
 30
0.0
 10
41.59498783346856
 20
33.31541767312785
 30
0.0
 10
41.56284320218793
 20
33.34576028188859
 30
0.0
 10
41.5260614029647
 20
33.36299345227781
 30
0.0
 10
41.48913614200669
 20
33.36603283119525
 30
0.0
 10
41.45580054092016
 20
33.35546150459546
 30
0.0
 10
41.42907001521804
 20
33.33273073319399
 30
0.0
 10
41.41153214988886
 20
33.29987647201456
 30
0.0
 10
41.40541209432484
 20
33.25972408959346
 30
0.0
 10
41.41222152898437
 20
33.21625361511152
 30
0.0
 10
41.43198766430849
 20
33.17469286293266
 30
0.0
 10
41.46243563448314
 20
33.14082561788398
 30
0.0
 10
41.49910452253209
 20
33.1192402158009
 30
0.0
 10
41.53656653638814
 20
33.11211580067704
 30
0.0
 10
41.56604529042067
 20
33.11733375779173
 30
0.0
 10
41.58072237803525
 20
33.12613546953782
 30
0.0
 10
41.58592149266928
 20
33.12925332980719
 30
0.0
  0
SPLINE
  5
78
330
1F
100
AcDbEntity
  8
0
  6
Continuous
 62
     7
370
    15
100
AcDbSpline
210
0.0
220
0.0
230
1.0
 70
     8
 71
     3
 72
    18
 73
    14
 74
     0
 42
0.000000001
 43
0.00000001
 40
0.0
 40
0.0
 40
0.0
 40
0.0
 40
0.002691306679535
 40
0.1031304000285438
 40
0.2035265178743383
 40
0.3070651717909658
 40
0.4154300904709836
 40
0.5281340165266175
 40
0.642629415284419
 40
0.7555891461819249
 40
0.8647207433853743
 40
0.9697254629855127
 40
1.0
 40
1.0
 40
1.0
 40
1.0
 10
41.52657409825544
 20
33.11447302055059
 30
0.0
 10
41.52688950232099
 20
33.11441529969782
 30
0.0
 10
41.53897573080555
 20
33.11220344674152
 30
0.0
 10
41.56154362937895
 20
33.12002257518026
 30
0.0
 10
41.58961774024824
 20
33.13803886432112
 30
0.0
 10
41.6093258996618
 20
33.16833293793134
 30
0.0
 10
41.61856816386089
 20
33.20670675928596
 30
0.0
 10
41.61538265066851
 20
33.25014462309461
 30
0.0
 10
41.5992631852745
 20
33.29303222391962
 30
0.0
 10
41.57189805480713
 20
33.32975865612302
 30
0.0
 10
41.53738083632902
 20
33.3540287531327
 30
0.0
 10
41.50812004849319
 20
33.3650912603692
 30
0.0
 10
41.49278443607188
 20
33.36330216433514
 30
0.0
 10
41.48935243490994
 20
33.36290177734706
 30
0.0
  0
LINE
  5
79
330
1F
100
AcDbEntity
  8
0
  6
Continuous
 62
     8
370
    15
100
AcDbLine
 10
32.9482459025
 20
23.0868515805
 30
0.0
 11
45.8673954327
 21
23.0868515805
 31
0.0
  0
CIRCLE
  5
7A
330
1F
100
AcDbEntity
  8
0
  6
Continuous
 62
     7
370
    15
100
AcDbCircle
 10
39.4078207329
 20
45.8320999349
 30
0.0
 40
6.462115843138541
  0
LINE
  5
7B
330
1F
100
AcDbEntity
  8
0
  6
Continuous
 62
     7
370
    15
100
AcDbLine
 10
39.5328207303
 20
50.8930566015
 30
0.0
 11
39.5328207303
 21
50.8935567291
 31
0.0
  0
ARC
  5
7C
330
1F
100
AcDbEntity
  8
0
  6
Continuous
 62
     7
370
    15
100
AcDbCircle
 10
39.4078207329
 20
45.8320999349
 30
0.0
 40
5.062500000000001
100
AcDbArc
 50
88.5851456058
 51
271.4148543942
  0
LINE
  5
7D
330
1F
100
AcDbEntity
  8
0
  6
Continuous
 62
     7
370
    15
100
AcDbLine
 10
39.5328207303
 20
40.7706429498
 30
0.0
 11
39.5328207303
 21
40.7711433707
 31
0.0
  0
ARC
  5
7E
330
1F
100
AcDbEntity
  8
0
  6
Continuous
 62
     7
370
    15
100
AcDbCircle
 10
39.4078207329
 20
45.8320999349
 30
0.0
 40
5.062500000000001
100
AcDbArc
 50
271.4148543942
 51
88.5851456058
  0
CIRCLE
  5
7F
330
1F
100
AcDbEntity
  8
0
  6
Continuous
 62
     7
370
    15
100
AcDbCircle
 10
39.4078207329
 20
45.8320999349
 30
0.0
 40
6.212115843138541
  0
CIRCLE
  5
80
330
1F
100
AcDbEntity
  8
0
  6
Continuous
 62
     7
370
    15
100
AcDbCircle
 10
39.4078207329
 20
45.8320999349
 30
0.0
 40
5.063000000000009
  0
CIRCLE
  5
81
330
1F
100
AcDbEntity
  8
0
  6
Continuous
 62
     7
370
    15
100
AcDbCircle
 10
39.4078207329
 20
45.8320999349
 30
0.0
 40
3.970574673556918
  0
SPLINE
  5
82
330
1F
100
AcDbEntity
  8
0
  6
Continuous
 62
     7
370
    15
100
AcDbSpline
210
0.0
220
0.0
230
1.0
 70
    11
 71
     3
 72
    26
 73
    22
 74
     0
 42
0.000000001
 43
0.00000001
 40
0.0
 40
0.0
 40
0.0
 40
0.0
 40
0.0515967563911698
 40
0.1032541519562554
 40
0.1536328550827799
 40
0.203699949838403
 40
0.2551105882689292
 40
0.3088628513687868
 40
0.3649049059766974
 40
0.4221073719236765
 40
0.4788076245339081
 40
0.5337200334370293
 40
0.5865268264214997
 40
0.6377861757064647
 40
0.6885016362449662
 40
0.7397496340507266
 40
0.7924346017119186
 40
0.847069589166863
 40
0.9035088326108847
 40
0.9607463891949014
 40
1.0
 40
1.0
 40
1.0
 40
1.0
 10
35.17993766847439
 20
45.7512016406513
 30
0.0
 10
35.17741437494284
 20
45.76238260291112
 30
0.0
 10
35.17236482237483
 20
45.78475766787531
 30
0.0
 10
35.16964537811286
 20
45.82599314369881
 30
0.0
 10
35.17117527004501
 20
45.86685813279288
 30
0.0
 10
35.17683046005462
 20
45.90382986658064
 30
0.0
 10
35.18589873303306
 20
45.93361494566823
 30
0.0
 10
35.197578117086
 20
45.95323079504753
 30
0.0
 10
35.21063572195941
 20
45.95959994004777
 30
0.0
 10
35.22342712563317
 20
45.95079846254811
 30
0.0
 10
35.23423722642244
 20
45.92739436991305
 30
0.0
 10
35.24179121712587
 20
45.89277653142531
 30
0.0
 10
35.24551589208555
 20
45.85195265391036
 30
0.0
 10
35.24538362994488
 20
45.80991482556901
 30
0.0
 10
35.24162411807097
 20
45.7708689840831
 30
0.0
 10
35.23455725297566
 20
45.73832796973372
 30
0.0
 10
35.22461447293319
 20
45.71544327227142
 30
0.0
 10
35.21246685048332
 20
45.70498514400425
 30
0.0
 10
35.19933393405586
 20
45.70922182088567
 30
0.0
 10
35.18788664977222
 20
45.72593271155448
 30
0.0
 10
35.18223629257112
 20
45.74389456982748
 30
0.0
 10
35.17993766847439
 20
45.7512016406513
 30
0.0
  0
SPLINE
  5
83
330
1F
100
AcDbEntity
  8
0
  6
Continuous
 62
     7
370
    15
100
AcDbSpline
210
0.0
220
0.0
230
1.0
 70
    11
 71
     3
 72
    26
 73
    22
 74
     0
 42
0.000000001
 43
0.00000001
 40
0.0
 40
0.0
 40
0.0
 40
0.0
 40
0.0528231405012954
 40
0.1055909013933673
 40
0.1597848254100459
 40
0.215893309351608
 40
0.2730905538963708
 40
0.3297957007370397
 40
0.3843967397453155
 40
0.4363461152249637
 40
0.4865586433343698
 40
0.5367496866952461
 40
0.5885117784948336
 40
0.6426866654224405
 40
0.6990307528331497
 40
0.7562704514089484
 40
0.8127424233652538
 40
0.8673005959799877
 40
0.9197956181743938
 40
0.9708919244638136
 40
1.0
 40
1.0
 40
1.0
 40
1.0
 10
41.44676745352194
 20
49.46474656813007
 30
0.0
 10
41.43710966691958
 20
49.47252522542777
 30
0.0
 10
41.41780421890702
 20
49.48807438490407
 30
0.0
 10
41.40076024453379
 20
49.50911496453745
 30
0.0
 10
41.39495700032094
 20
49.52599370509084
 30
0.0
 10
41.40227553521798
 20
49.53688937937571
 30
0.0
 10
41.42247131098929
 20
49.54006040529286
 30
0.0
 10
41.45324289292952
 20
49.53464031492808
 30
0.0
 10
41.49001037530282
 20
49.52131921865934
 30
0.0
 10
41.52751222671515
 20
49.50221723948695
 30
0.0
 10
41.56160680731009
 20
49.47987513631467
 30
0.0
 10
41.58960020987246
 20
49.45647888399641
 30
0.0
 10
41.60933106359609
 20
49.43403237749467
 30
0.0
 10
41.61856603293881
 20
49.41483456913728
 30
0.0
 10
41.61538582416709
 20
49.40150340096132
 30
0.0
 10
41.5992525995918
 20
49.39629852160979
 30
0.0
 10
41.57193603813428
 20
49.40013916431214
 30
0.0
 10
41.53724662600747
 20
49.41214659235182
 30
0.0
 10
41.49998331105166
 20
49.43015884575766
 30
0.0
 10
41.4689049502165
 20
49.44872272742857
 30
0.0
 10
41.45266229791131
 20
49.46047968787894
 30
0.0
 10
41.44676745352194
 20
49.46474656813007
 30
0.0
  0
SPLINE
  5
84
330
1F
100
AcDbEntity
  8
0
  6
Continuous
 62
     7
370
    15
100
AcDbSpline
210
0.0
220
0.0
230
1.0
 70
    11
 71
     3
 72
    26
 73
    22
 74
     0
 42
0.000000001
 43
0.00000001
 40
0.0
 40
0.0
 40
0.0
 40
0.0
 40
0.0566914394874047
 40
0.1133517968863367
 40
0.1705900157393577
 40
0.226937176495577
 40
0.2813189920816179
 40
0.3336672975663934
 40
0.3846934489030051
 40
0.4354482365589604
 40
0.4869851913105888
 40
0.5401329997011016
 40
0.5952671345964349
 40
0.6520378953351208
 40
0.7092309360891478
 40
0.7651165802193419
 40
0.8184588249755996
 40
0.869414880216741
 40
0.9193932467942556
 40
0.970152038665282
 40
1.0
 40
1.0
 40
1.0
 40
1.0
 10
41.42745783658829
 20
42.12578652175612
 30
0.0
 10
41.4195009921139
 20
42.12589282749562
 30
0.0
 10
41.40359166564643
 20
42.1261053806906
 30
0.0
 10
41.39512149358629
 20
42.13678089447706
 30
0.0
 10
41.39966166917644
 20
42.15375283636806
 30
0.0
 10
41.41770009729308
 20
42.17583114244642
 30
0.0
 10
41.4461199050879
 20
42.19989035124574
 30
0.0
 10
41.48074497416882
 20
42.22305869279482
 30
0.0
 10
41.51734820568654
 20
42.24296477899667
 30
0.0
 10
41.55233573973386
 20
42.25783576877306
 30
0.0
 10
41.58259487153785
 20
42.26626348354726
 30
0.0
 10
41.60522962001195
 20
42.26712671062126
 30
0.0
 10
41.6175124309724
 20
42.25975640081908
 30
0.0
 10
41.61728242353793
 20
42.2443829819305
 30
0.0
 10
41.60380638225801
 20
42.22264542509463
 30
0.0
 10
41.57865396488175
 20
42.19765056861134
 30
0.0
 10
41.54565874862003
 20
42.17314773181939
 30
0.0
 10
41.50935736038473
 20
42.15211934435719
 30
0.0
 10
41.4737016979542
 20
42.13642684088973
 30
0.0
 10
41.44589906712665
 20
42.12806144961112
 30
0.0
 10
41.43244122774055
 20
42.12640127105802
 30
0.0
 10
41.42745790992078
 20
42.12578652175612
 30
0.0
  0
SPLINE
  5
85
330
1F
100
AcDbEntity
  8
0
  6
Continuous
 62
     7
370
    15
100
AcDbSpline
210
0.0
220
0.0
230
1.0
 70
     8
 71
     3
 72
    17
 73
    13
 74
     0
 42
0.000000001
 43
0.00000001
 40
0.0
 40
0.0
 40
0.0
 40
0.0
 40
0.0939141550341578
 40
0.20805496397988
 40
0.3191086436088766
 40
0.4259130259406814
 40
0.5292138212025334
 40
0.6308799081530553
 40
0.7330852693398446
 40
0.8377708655440399
 40
0.9462065907810928
 40
0.9999999999999999
 40
0.9999999999999999
 40
0.9999999999999999
 40
0.9999999999999999
 10
41.6247201711303
 20
49.42413503727794
 30
0.0
 10
41.62244737406503
 20
49.42128943051758
 30
0.0
 10
41.61741227886161
 20
49.41498534768988
 30
0.0
 10
41.59475821537365
 20
49.41568125717784
 30
0.0
 10
41.56290094564104
 20
49.42429518332777
 30
0.0
 10
41.52604866969895
 20
49.4401383242266
 30
0.0
 10
41.48913252682605
 20
49.46050002617632
 30
0.0
 10
41.45582695712156
 20
49.4830484256569
 30
0.0
 10
41.42896614721408
 20
49.50579048505956
 30
0.0
 10
41.41193728808456
 20
49.52634430577355
 30
0.0
 10
41.40527648103103
 20
49.54119008337413
 30
0.0
 10
41.40941005970124
 20
49.54602449318671
 30
0.0
 10
41.41078070924389
 20
49.54762753068212
 30
0.0
  0
SPLINE
  5
86
330
1F
100
AcDbEntity
  8
0
  6
Continuous
 62
     7
370
    15
100
AcDbSpline
210
0.0
220
0.0
230
1.0
 70
     8
 71
     3
 72
    17
 73
    13
 74
     0
 42
0.000000001
 43
0.00000001
 40
0.0
 40
0.0
 40
0.0
 40
0.0
 40
0.0499879978999528
 40
0.1646010366069296
 40
0.2770903774865198
 40
0.3855248440174981
 40
0.4899869745934053
 40
0.5920275727707174
 40
0.693781333860119
 40
0.797329724612479
 40
0.9042537247142237
 40
1.0
 40
1.0
 40
1.0
 40
1.0
 10
41.41079852903803
 20
42.11659121464776
 30
0.0
 10
41.40946246324892
 20
42.11804464304334
 30
0.0
 10
41.40506305092796
 20
42.12283050826296
 30
0.0
 10
41.41208191036404
 20
42.13833566242946
 30
0.0
 10
41.43089217026204
 20
42.16044675808295
 30
0.0
 10
41.46043220771754
 20
42.18463645862052
 30
0.0
 10
41.49546123933765
 20
42.20751102667885
 30
0.0
 10
41.53204323247962
 20
42.22690406704874
 30
0.0
 10
41.56668824174591
 20
42.2411200454189
 30
0.0
 10
41.59596729596704
 20
42.24856659909585
 30
0.0
 10
41.61737365270604
 20
42.24902905820299
 30
0.0
 10
41.6225191428086
 20
42.24304205596723
 30
0.0
 10
41.62494999514202
 20
42.24021365321747
 30
0.0
  0
SPLINE
  5
87
330
1F
100
AcDbEntity
  8
0
  6
Continuous
 62
     7
370
    15
100
AcDbSpline
210
0.0
220
0.0
230
1.0
 70
     8
 71
     3
 72
    18
 73
    14
 74
     0
 42
0.000000001
 43
0.00000001
 40
0.0
 40
0.0
 40
0.0
 40
0.0
 40
0.0038778735702695
 40
0.1184723624082802
 40
0.2321855426069868
 40
0.3423826951953082
 40
0.4483488587377955
 40
0.5511499204827379
 40
0.6527803534186222
 40
0.7554034796301763
 40
0.8608530215544627
 40
0.9701923454406707
 40
1.0
 40
1.0
 40
1.0
 40
1.0
 10
35.18865132781345
 20
45.95685478826192
 30
0.0
 10
35.18879977602742
 20
45.95693604586127
 30
0.0
 10
35.19333499624157
 20
45.95941853519062
 30
0.0
 10
35.20209559803871
 20
45.95030457026336
 30
0.0
 10
35.2129987982396
 20
45.92875497987979
 30
0.0
 10
35.22068885678768
 20
45.89411119127555
 30
0.0
 10
35.22455646895153
 20
45.85351559371706
 30
0.0
 10
35.22456197447741
 20
45.81140461966995
 30
0.0
 10
35.22092923295225
 20
45.77224783810318
 30
0.0
 10
35.21397826451471
 20
45.73919385571931
 30
0.0
 10
35.20411874998066
 20
45.71674644315857
 30
0.0
 10
35.19514018924379
 20
45.70610110823624
 30
0.0
 10
35.18978887140913
 20
45.70812164079971
 30
0.0
 10
35.18864252791511
 20
45.70855447331501
 30
0.0
  0
CIRCLE
  5
88
330
1F
100
AcDbEntity
  8
0
  6
Continuous
 62
     7
370
    15
100
AcDbCircle
 10
39.4078207329
 20
11.0339825943
 30
0.0
 40
6.462115843138545
  0
CIRCLE
  5
89
330
1F
100
AcDbEntity
  8
0
  6
Continuous
 62
     7
370
    15
100
AcDbCircle
 10
39.4078207329
 20
11.0339825943
 30
0.0
 40
3.991526615422927
  0
CIRCLE
  5
8A
330
1F
100
AcDbEntity
  8
0
  6
Continuous
 62
     7
370
    15
100
AcDbCircle
 10
39.4078207329
 20
11.0339825943
 30
0.0
 40
6.459574988872644
  0
SPLINE
  5
8B
330
1F
100
AcDbEntity
  8
0
  6
Continuous
 62
     7
370
    15
100
AcDbSpline
210
0.0
220
0.0
230
1.0
 70
    11
 71
     3
 72
    26
 73
    22
 74
     0
 42
0.000000001
 43
0.00000001
 40
0.0
 40
0.0
 40
0.0
 40
0.0
 40
0.0516789383256642
 40
0.1034199145307899
 40
0.1538474443995892
 40
0.2038986779007806
 40
0.2552387343708242
 40
0.3088986057271277
 40
0.3648678156130788
 40
0.4220531285408602
 40
0.4787986479773873
 40
0.5337895879293213
 40
0.5866691660257821
 40
0.637969284773227
 40
0.6886852325413598
 40
0.739896557322699
 40
0.792518329226195
 40
0.8470811927211702
 40
0.9034664869472814
 40
0.9607001184446429
 40
1.0
 40
1.0
 40
1.0
 40
1.0
 10
35.15939811908235
 20
11.11609644779733
 30
0.0
 10
35.15682948969569
 20
11.10500474513036
 30
0.0
 10
35.1516891474163
 20
11.08280802478385
 30
0.0
 10
35.14880329499744
 20
11.04163039252923
 30
0.0
 10
35.15017246349844
 20
11.00067406063032
 30
0.0
 10
35.15568709379191
 20
10.96349287481664
 30
0.0
 10
35.16463800482124
 20
10.93339408106348
 30
0.0
 10
35.17623489052816
 20
10.91335139306795
 30
0.0
 10
35.18926347484815
 20
10.90645414860749
 30
0.0
 10
35.20209184448236
 20
10.91469352829793
 30
0.0
 10
35.21299977143239
 20
10.93760786191627
 30
0.0
 10
35.22068859671995
 20
10.97189943005621
 30
0.0
 10
35.22455658285359
 20
11.01258838985809
 30
0.0
 10
35.22456177356808
 20
11.05466106012021
 30
0.0
 10
35.22092992102561
 20
11.09388088953389
 30
0.0
 10
35.21397565276442
 20
11.12671677130144
 30
0.0
 10
35.20412894611891
 20
11.15000619795038
 30
0.0
 10
35.19204657284885
 20
11.16096390572553
 30
0.0
 10
35.17892902981003
 20
11.1572766577667
 30
0.0
 10
35.16743957679282
 20
11.14104568212748
 30
0.0
 10
35.16172470700622
 20
11.12331483777706
 30
0.0
 10
35.15939811908235
 20
11.11609641113109
 30
0.0
  0
SPLINE
  5
8C
330
1F
100
AcDbEntity
  8
0
  6
Continuous
 62
     7
370
    15
100
AcDbSpline
210
0.0
220
0.0
230
1.0
 70
    11
 71
     3
 72
    26
 73
    22
 74
     0
 42
0.000000001
 43
0.00000001
 40
0.0
 40
0.0
 40
0.0
 40
0.0
 40
0.0537388605206048
 40
0.1074020774821953
 40
0.1629260447127868
 40
0.2199890833755288
 40
0.2769704345103661
 40
0.3324106295834951
 40
0.3857294913350532
 40
0.4372992930711055
 40
0.4880530160606402
 40
0.5390759554233421
 40
0.5913370772006343
 40
0.6454703376213791
 40
0.7015200740396044
 40
0.7587011082646654
 40
0.8154517940599842
 40
0.8701454580774598
 40
0.9221832687186746
 40
0.972434714774398
 40
1.0
 40
1.0
 40
1.0
 40
1.0
 10
41.58592149266928
 20
7.379973621140377
 30
0.0
 10
41.59484403634521
 20
7.388092320350537
 30
0.0
 10
41.61267656420193
 20
7.404318290778209
 30
0.0
 10
41.62644231862166
 20
7.425621175633342
 30
0.0
 10
41.6287837410967
 20
7.441780212851528
 30
0.0
 10
41.61797642464426
 20
7.450596725103021
 30
0.0
 10
41.59498783346856
 20
7.450542923206871
 30
0.0
 10
41.56284320218793
 20
7.44175168467813
 30
0.0
 10
41.5260614029647
 20
7.425952208413438
 30
0.0
 10
41.48913614200669
 20
7.405584200054809
 30
0.0
 10
41.45580054092016
 20
7.38301976940723
 30
0.0
 10
41.42907001521804
 20
7.360348674116349
 30
0.0
 10
41.41153214988886
 20
7.339517264177863
 30
0.0
 10
41.40541209432484
 20
7.32250964500498
 30
0.0
 10
41.41222152898437
 20
7.311370238211436
 30
0.0
 10
41.43198766430849
 20
7.307904923864634
 30
0.0
 10
41.46243563448314
 20
7.31302372182083
 30
0.0
 10
41.49910452253209
 20
7.326099128447455
 30
0.0
 10
41.53656653638814
 20
7.345027781478565
 30
0.0
 10
41.56604529042067
 20
7.364028601006029
 30
0.0
 10
41.58072237803525
 20
7.37580258827843
 30
0.0
 10
41.58592149266928
 20
7.379973327810432
 30
0.0
  0
SPLINE
  5
8D
330
1F
100
AcDbEntity
  8
0
  6
Continuous
 62
     7
370
    15
100
AcDbSpline
210
0.0
220
0.0
230
1.0
 70
    11
 71
     3
 72
    26
 73
    22
 74
     0
 42
0.000000001
 43
0.00000001
 40
0.0
 40
0.0
 40
0.0
 40
0.0
 40
0.0568204369143583
 40
0.1136155092710748
 40
0.1708290451088609
 40
0.226982454951153
 40
0.2811117172664335
 40
0.3332580342895449
 40
0.3841955496594378
 40
0.434989879191193
 40
0.4866800676033653
 40
0.5400553221185239
 40
0.5954173963548102
 40
0.6523154473957568
 40
0.709442170709078
 40
0.7650682625330405
 40
0.8180910119594751
 40
0.8688462443153098
 40
0.9188319229601231
 40
0.9697852186586947
 40
1.0
 40
1.0
 40
1.0
 40
1.0
 10
41.43490431056598
 20
14.75857134294986
 30
0.0
 10
41.42736209732982
 20
14.75814278265439
 30
0.0
 10
41.41228103769013
 20
14.75728585337214
 30
0.0
 10
41.40539784737369
 20
14.74571873528712
 30
0.0
 10
41.41156782872098
 20
14.72803746134115
 30
0.0
 10
41.4310232645493
 20
14.70556168227829
 30
0.0
 10
41.46039993076359
 20
14.68146425980523
 30
0.0
 10
41.49546626667534
 20
14.65856886006502
 30
0.0
 10
41.53205377321842
 20
14.63917177846775
 30
0.0
 10
41.5666408412458
 20
14.62499199867286
 30
0.0
 10
41.59615239618526
 20
14.61740079993697
 30
0.0
 10
41.61770584423739
 20
14.61748299210374
 30
0.0
 10
41.62861038070098
 20
14.6258256631526
 30
0.0
 10
41.62681999359565
 20
14.64205902577425
 30
0.0
 10
41.61183692445839
 20
14.66435829264464
 30
0.0
 10
41.58552930197865
 20
14.68948163886394
 30
0.0
 10
41.55191653920807
 20
14.71370140015385
 30
0.0
 10
41.5155008703783
 20
14.73418378199179
 30
0.0
 10
41.48010890239442
 20
14.74919270609667
 30
0.0
 10
41.45276454866663
 20
14.75690274640591
 30
0.0
 10
41.43974924987494
 20
14.75811870346426
 30
0.0
 10
41.43490431056598
 20
14.75857134294986
 30
0.0
  0
CIRCLE
  5
8E
330
1F
100
AcDbEntity
  8
0
  6
Continuous
 62
     7
370
    15
100
AcDbCircle
 10
39.4078207329
 20
11.0339825943
 30
0.0
 40
3.970574673556921
  0
SPLINE
  5
8F
330
1F
100
AcDbEntity
  8
0
  6
Continuous
 62
     7
370
    15
100
AcDbSpline
210
0.0
220
0.0
230
1.0
 70
     8
 71
     3
 72
     9
 73
     5
 74
     0
 42
0.000000001
 43
0.00000001
 40
0.0
 40
0.0
 40
0.0
 40
0.0
 40
0.5957802603236256
 40
0.9999999999999999
 40
0.9999999999999999
 40
0.9999999999999999
 40
0.9999999999999999
 10
41.42745783658829
 20
14.74029600740142
 30
0.0
 10
41.41912334109991
 20
14.74040335806174
 30
0.0
 10
41.40513413057479
 20
14.74058354305184
 30
0.0
 10
41.40158190983805
 20
14.73410889119678
 30
0.0
 10
41.40014603209659
 20
14.73149170910943
 30
0.0
  0
SPLINE
  5
90
330
1F
100
AcDbEntity
  8
0
  6
Continuous
 62
     7
370
    15
100
AcDbSpline
210
0.0
220
0.0
230
1.0
 70
     8
 71
     3
 72
    16
 73
    12
 74
     0
 42
0.000000001
 43
0.00000001
 40
0.0
 40
0.0
 40
0.0
 40
0.0
 40
0.002489313379042
 40
0.1424073812334395
 40
0.2833662067432082
 40
0.4211028029372899
 40
0.5525708989113143
 40
0.6781579564397506
 40
0.8013353878332214
 40
0.9264362671028885
 40
1.0
 40
1.0
 40
1.0
 40
1.0
 10
41.61510987548259
 20
14.60737706289241
 30
0.0
 10
41.61518458465893
 20
14.60742087946422
 30
0.0
 10
41.6194585094475
 20
14.60992751575117
 30
0.0
 10
41.61634899530988
 20
14.62230926305044
 30
0.0
 10
41.60405131545402
 20
14.64327711356682
 30
0.0
 10
41.578592164694
 20
14.66847232846226
 30
0.0
 10
41.54567418379967
 20
14.69292471507046
 30
0.0
 10
41.509353389893
 20
14.71396577832769
 30
0.0
 10
41.47370278498379
 20
14.7296549782195
 30
0.0
 10
41.44589892015187
 20
14.73802117555043
 30
0.0
 10
41.43244118802384
 20
14.7396812840425
 30
0.0
 10
41.42745790992078
 20
14.74029600740142
 30
0.0
  0
SPLINE
  5
91
330
1F
100
AcDbEntity
  8
0
  6
Continuous
 62
     7
370
    15
100
AcDbSpline
210
0.0
220
0.0
230
1.0
 70
     8
 71
     3
 72
    17
 73
    13
 74
     0
 42
0.000000001
 43
0.00000001
 40
0.0
 40
0.0
 40
0.0
 40
0.0
 40
0.0623750115582658
 40
0.1765734669102268
 40
0.2897894134344104
 40
0.3988043557622258
 40
0.5025250591543627
 40
0.6027780205522408
 40
0.7029880860883471
 40
0.8063348640030281
 40
0.9144989627326116
 40
1.0
 40
1.0
 40
1.0
 40
1.0
 10
41.40031755678179
 20
7.336543189519095
 30
0.0
 10
41.40128659022788
 20
7.33433281706777
 30
0.0
 10
41.40402976559341
 20
7.32807561378807
 30
0.0
 10
41.4228658415515
 20
7.326237078526058
 30
0.0
 10
41.45314206113017
 20
7.331387295799622
 30
0.0
 10
41.49003438775949
 20
7.344776324241912
 30
0.0
 10
41.52751022304028
 20
7.363864440042442
 30
0.0
 10
41.56159273776779
 20
7.386198855839729
 30
0.0
 10
41.58965935495097
 20
7.409639167351271
 30
0.0
 10
41.60909638508551
 20
7.431909299965962
 30
0.0
 10
41.6186356308781
 20
7.450152056948169
 30
0.0
 10
41.61544484031856
 20
7.456969322249744
 30
0.0
 10
41.61403614121979
 20
7.459979070243935
 30
0.0
  0
SPLINE
  5
92
330
1F
100
AcDbEntity
  8
0
  6
Continuous
 62
     7
370
    15
100
AcDbSpline
210
0.0
220
0.0
230
1.0
 70
     8
 71
     3
 72
    13
 73
     9
 74
     0
 42
0.000000001
 43
0.00000001
 40
0.0
 40
0.0
 40
0.0
 40
0.0
 40
0.1670539404868814
 40
0.334304211395654
 40
0.4974144815471513
 40
0.6595158625767598
 40
0.825967212108404
 40
1.0
 40
1.0
 40
1.0
 40
1.0
 10
35.17993766847439
 20
11.11488088850625
 30
0.0
 10
35.17741431436101
 20
11.10369904453795
 30
0.0
 10
35.17236464055813
 20
11.08132221512062
 30
0.0
 10
35.16964609886485
 20
11.04009987528833
 30
0.0
 10
35.17117264876818
 20
10.99918624628261
 30
0.0
 10
35.17684029706721
 20
10.96239583052985
 30
0.0
 10
35.18586018119709
 20
10.93190649978725
 30
0.0
 10
35.19360476391249
 20
10.92093616217656
 30
0.0
 10
35.19756327819518
 20
10.91532885708167
 30
0.0
  0
SPLINE
  5
93
330
1F
100
AcDbEntity
  8
0
  6
Continuous
 62
     7
370
    15
100
AcDbSpline
210
0.0
220
0.0
230
1.0
 70
     8
 71
     3
 72
    10
 73
     6
 74
     0
 42
0.000000001
 43
0.00000001
 40
0.0
 40
0.0
 40
0.0
 40
0.0
 40
0.3112220683871102
 40
0.719797971252205
 40
1.0
 40
1.0
 40
1.0
 40
1.0
 10
35.20953700654031
 20
11.15766460093182
 30
0.0
 10
35.20617294964212
 20
11.15730695430558
 30
0.0
 10
35.19839252024313
 20
11.15647978508419
 30
0.0
 10
35.18788311851895
 20
11.13996659269523
 30
0.0
 10
35.18223527143098
 20
11.12213497578758
 30
0.0
 10
35.17993766847439
 20
11.11488088850625
 30
0.0
  0
ARC
  5
94
330
1F
100
AcDbEntity
  8
0
  6
Continuous
 62
     7
370
    15
100
AcDbCircle
 10
24.5599046064
 20
23.0512992718
 30
0.0
 40
0.2500000000000033
100
AcDbArc
 50
270.0
 51
8.1757201544
  0
ARC
  5
95
330
1F
100
AcDbEntity
  8
0
  6
Continuous
 62
     7
370
    15
100
AcDbCircle
 10
12.1356729201
 20
23.0512992718
 30
0.0
 40
0.2500000000000033
100
AcDbArc
 50
171.8242798456
 51
270.0
  0
ARC
  5
96
330
1F
100
AcDbEntity
  8
0
  6
Continuous
 62
     7
370
    15
100
AcDbCircle
 10
81.1767745799
 20
13.1321873358
 30
0.0
 40
69.99999999999999
100
AcDbArc
 50
162.6649583926
 51
171.8242798456
  0
ARC
  5
97
330
1F
100
AcDbEntity
  8
0
  6
Continuous
 62
     7
370
    15
100
AcDbCircle
 10
-44.4811970534
 20
13.1321873358
 30
0.0
 40
70.00000000000001
100
AcDbArc
 50
8.1757201544
 51
17.3350416074
  0
LINE
  5
98
330
1F
100
AcDbEntity
  8
0
  6
Continuous
 62
     7
370
    15
100
AcDbLine
 10
24.5599046158
 20
22.8012992792
 30
0.0
 11
12.1356731016
 21
22.8012992792
 31
0.0
  0
LINE
  5
99
330
1F
100
AcDbEntity
  8
0
  6
Continuous
 62
     7
370
    15
100
AcDbLine
 10
22.3393153882
 20
33.9892990745
 30
0.0
 11
14.3562620358
 21
33.9892990745
 31
0.0
  0
SPLINE
  5
9A
330
1F
100
AcDbEntity
  8
0
  6
Continuous
 62
     7
370
    15
100
AcDbSpline
210
0.0
220
0.0
230
1.0
 70
    11
 71
     3
 72
    26
 73
    22
 74
     0
 42
0.000000001
 43
0.00000001
 40
0.0
 40
0.0
 40
0.0
 40
0.0
 40
0.0537388605206048
 40
0.1074020774821953
 40
0.1629260447127868
 40
0.2199890833755288
 40
0.2769704345103661
 40
0.3324106295834951
 40
0.3857294913350532
 40
0.4372992930711055
 40
0.4880530160606402
 40
0.5390759554233421
 40
0.5913370772006343
 40
0.6454703376213791
 40
0.7015200740396044
 40
0.7587011082646654
 40
0.8154517940599842
 40
0.8701454580774598
 40
0.9221832687186746
 40
0.972434714774398
 40
1.0
 40
1.0
 40
1.0
 40
1.0
 10
14.6937797901061
 20
33.1292527431473
 30
0.0
 10
14.70189848931626
 20
33.13721001076887
 30
0.0
 10
14.71812445974393
 20
33.15311334525268
 30
0.0
 10
14.73942734459907
 20
33.18977938255828
 30
0.0
 10
14.75558638181725
 20
33.23160226388114
 30
0.0
 10
14.76440289406875
 20
33.27552974817752
 30
0.0
 10
14.7643490921726
 20
33.31541767312785
 30
0.0
 10
14.75555785364386
 20
33.34576028188859
 30
0.0
 10
14.73975837737916
 20
33.36299345227781
 30
0.0
 10
14.71939036902054
 20
33.36603283119525
 30
0.0
 10
14.69682593837296
 20
33.35546150459546
 30
0.0
 10
14.67415484308208
 20
33.33273073319399
 30
0.0
 10
14.65332343314359
 20
33.29987647201456
 30
0.0
 10
14.63631581397071
 20
33.25972408959346
 30
0.0
 10
14.62517640717716
 20
33.21625361511152
 30
0.0
 10
14.62171109283036
 20
33.17469286293266
 30
0.0
 10
14.62682989078656
 20
33.14082561788398
 30
0.0
 10
14.63990529741318
 20
33.1192402158009
 30
0.0
 10
14.65883395044429
 20
33.11211580067704
 30
0.0
 10
14.67783476997176
 20
33.11733375779173
 30
0.0
 10
14.68960875724416
 20
33.12613546953782
 30
0.0
 10
14.69377949677616
 20
33.12925332980719
 30
0.0
  0
SPLINE
  5
9B
330
1F
100
AcDbEntity
  8
0
  6
Continuous
 62
     7
370
    15
100
AcDbSpline
210
0.0
220
0.0
230
1.0
 70
    11
 71
     3
 72
    26
 73
    22
 74
     0
 42
0.000000001
 43
0.00000001
 40
0.0
 40
0.0
 40
0.0
 40
0.0
 40
0.0568204369143583
 40
0.1136155092710748
 40
0.1708290451088609
 40
0.226982454951153
 40
0.2811117172664335
 40
0.3332580342895449
 40
0.3841955496594378
 40
0.434989879191193
 40
0.4866800676033653
 40
0.5400553221185239
 40
0.5954173963548102
 40
0.6523154473957568
 40
0.709442170709078
 40
0.7650682625330405
 40
0.8180910119594751
 40
0.8688462443153098
 40
0.9188319229601231
 40
0.9697852186586947
 40
1.0
 40
1.0
 40
1.0
 40
1.0
 10
22.07237751191558
 20
33.17432816909881
 30
0.0
 10
22.07194895162012
 20
33.18760723952009
 30
0.0
 10
22.07109202233787
 20
33.21415945260559
 30
0.0
 10
22.05952490425285
 20
33.25896674493701
 30
0.0
 10
22.04184363030687
 20
33.30103092692322
 30
0.0
 10
22.01936785124402
 20
33.33560325355326
 30
0.0
 10
21.99527042877095
 20
33.35808138078875
 30
0.0
 10
21.97237502903075
 20
33.36653623609126
 30
0.0
 10
21.95297794743347
 20
33.36102029000788
 30
0.0
 10
21.93879816763858
 20
33.34272042669856
 30
0.0
 10
21.9312069689027
 20
33.31344542191825
 30
0.0
 10
21.93128916106947
 20
33.27567776286841
 30
0.0
 10
21.93963183211833
 20
33.23291860157605
 30
0.0
 10
21.95586519473997
 20
33.18995133842031
 30
0.0
 10
21.97816446161036
 20
33.15249226570931
 30
0.0
 10
22.00328780782966
 20
33.12583991909971
 30
0.0
 10
22.02750756911958
 20
33.11309631751795
 30
0.0
 10
22.04798995095751
 20
33.11452476188004
 30
0.0
 10
22.0629988750624
 20
33.12892409979121
 30
0.0
 10
22.07070891537164
 20
33.15061103430188
 30
0.0
 10
22.07192487242999
 20
33.16789443187616
 30
0.0
 10
22.07237751191558
 20
33.17432816909881
 30
0.0
  0
SPLINE
  5
9C
330
1F
100
AcDbEntity
  8
0
  6
Continuous
 62
     7
370
    15
100
AcDbSpline
210
0.0
220
0.0
230
1.0
 70
     8
 71
     3
 72
    15
 73
    11
 74
     0
 42
0.000000001
 43
0.00000001
 40
0.0
 40
0.0
 40
0.0
 40
0.0
 40
0.121432325455731
 40
0.2427373416551962
 40
0.3673208888745268
 40
0.4963057167011179
 40
0.6277934387262848
 40
0.7581499033519019
 40
0.8836693457052284
 40
1.0
 40
1.0
 40
1.0
 40
1.0
 10
14.7151421299932
 20
33.35362492451405
 30
0.0
 10
14.7073634501028
 20
33.34669489873446
 30
0.0
 10
14.69181424546479
 20
33.33284211259183
 30
0.0
 10
14.67077400731998
 20
33.29849203559906
 30
0.0
 10
14.65389391964479
 20
33.25823560448326
 30
0.0
 10
14.64300351449163
 20
33.21469968246006
 30
0.0
 10
14.6398123730443
 20
33.17326347442499
 30
0.0
 10
14.64530626389255
 20
33.14001182992957
 30
0.0
 10
14.65825892171202
 20
33.11823177600132
 30
0.0
 10
14.6716259585056
 20
33.11569379659667
 30
0.0
 10
14.67805554508726
 20
33.11447302055059
 30
0.0
  0
SPLINE
  5
9D
330
1F
100
AcDbEntity
  8
0
  6
Continuous
 62
     7
370
    15
100
AcDbSpline
210
0.0
220
0.0
230
1.0
 70
     8
 71
     3
 72
    14
 73
    10
 74
     0
 42
0.000000001
 43
0.00000001
 40
0.0
 40
0.0
 40
0.0
 40
0.0
 40
0.1645206155283322
 40
0.328951029707507
 40
0.495058418805231
 40
0.6585799249569083
 40
0.8163979280744946
 40
0.9683146110533044
 40
1.0
 40
1.0
 40
1.0
 40
1.0
 10
22.05410217636715
 20
33.17010187125469
 30
0.0
 10
22.05399622055936
 20
33.18310176713086
 30
0.0
 10
22.05378436703593
 20
33.20909443145942
 30
0.0
 10
22.04310359008992
 20
33.25379803875599
 30
0.0
 10
22.02615173779732
 20
33.29630150886143
 30
0.0
 10
22.00400018799456
 20
33.33232003261909
 30
0.0
 10
21.98020101250403
 20
33.35538917201222
 30
0.0
 10
21.96223630836724
 20
33.36552169234359
 30
0.0
 10
21.95432147226338
 20
33.36352151724119
 30
0.0
 10
21.95295555815485
 20
33.36317633417535
 30
0.0
  0
SPLINE
  5
9E
330
1F
100
AcDbEntity
  8
0
  6
Continuous
 62
     7
370
    15
100
AcDbSpline
210
0.0
220
0.0
230
1.0
 70
     8
 71
     3
 72
    11
 73
     7
 74
     0
 42
0.000000001
 43
0.00000001
 40
0.0
 40
0.0
 40
0.0
 40
0.0
 40
0.1597426301650549
 40
0.4813312684323443
 40
0.8079415975750357
 40
1.0
 40
1.0
 40
1.0
 40
1.0
 10
22.01711561697237
 20
33.1159672432892
 30
0.0
 10
22.02053438641005
 20
33.11562988426117
 30
0.0
 10
22.03083571066027
 20
33.11461336507211
 30
0.0
 10
22.04333446935386
 20
33.12707041269533
 30
0.0
 10
22.05184447233589
 20
33.14714390326642
 30
0.0
 10
22.05349208142543
 20
33.16389798449722
 30
0.0
 10
22.05410217636715
 20
33.17010187125469
 30
0.0
  0
LINE
  5
9F
330
1F
100
AcDbEntity
  8
0
  6
Continuous
 62
     8
370
    15
100
AcDbLine
 10
11.8882135069
 20
23.0868515805
 30
0.0
 11
24.8073636238
 21
23.0868515805
 31
0.0
  0
ENDSEC
  0
SECTION
  2
OBJECTS
  0
DICTIONARY
  5
C
330
0
100
AcDbDictionary
281
     1
  3
ACAD_DETAILVIEWSTYLE
350
A4
  3
ACAD_GROUP
350
D
  3
ACAD_LAYOUT
350
1A
  3
ACAD_MATERIAL
350
43
  3
ACAD_MLEADERSTYLE
350
A3
  3
ACAD_MLINESTYLE
350
17
  3
ACAD_PLOTSETTINGS
350
19
  3
ACAD_PLOTSTYLENAME
350
E
  3
ACAD_SCALELIST
350
47
  3
ACAD_SECTIONVIEWSTYLE
350
A5
  3
ACAD_TABLESTYLE
350
A2
  3
AcDbVariableDictionary
350
A0
  0
DICTIONARY
  5
A4
102
{ACAD_REACTORS
330
C
102
}
330
C
100
AcDbDictionary
281
     1
  0
DICTIONARY
  5
D
102
{ACAD_REACTORS
330
C
102
}
330
C
100
AcDbDictionary
281
     1
  0
DICTIONARY
  5
1A
102
{ACAD_REACTORS
330
C
102
}
330
C
100
AcDbDictionary
281
     1
  3
Layout1
350
1E
  3
Layout2
350
26
  3
Model
350
22
  0
DICTIONARY
  5
43
102
{ACAD_REACTORS
330
C
102
}
330
C
100
AcDbDictionary
281
     1
  3
ByBlock
350
45
  3
ByLayer
350
44
  3
Global
350
46
  0
DICTIONARY
  5
A3
102
{ACAD_REACTORS
330
C
102
}
330
C
100
AcDbDictionary
281
     1
  0
DICTIONARY
  5
17
102
{ACAD_REACTORS
330
C
102
}
330
C
100
AcDbDictionary
281
     1
  3
Standard
350
18
  0
DICTIONARY
  5
19
102
{ACAD_REACTORS
330
C
102
}
330
C
100
AcDbDictionary
281
     1
  0
ACDBDICTIONARYWDFLT
  5
E
102
{ACAD_REACTORS
330
C
102
}
330
C
100
AcDbDictionary
281
     1
  3
Normal
350
F
100
AcDbDictionaryWithDefault
340
F
  0
DICTIONARY
  5
47
102
{ACAD_REACTORS
330
C
102
}
330
C
100
AcDbDictionary
281
     1
  3
A0
350
48
  3
A1
350
49
  3
A2
350
4A
  3
A3
350
4B
  3
A4
350
4C
  3
A5
350
4D
  3
A6
350
4E
  3
A7
350
4F
  3
A8
350
50
  3
A9
350
51
  3
B0
350
52
  3
B1
350
53
  3
B2
350
54
  3
B3
350
55
  3
B4
350
56
  3
B5
350
57
  3
B6
350
58
  3
B7
350
59
  3
B8
350
5A
  3
B9
350
5B
  3
C0
350
5C
  3
C1
350
5D
  3
C2
350
5E
  3
C3
350
5F
  3
C4
350
60
  3
C5
350
61
  3
C6
350
62
  3
C7
350
63
  3
C8
350
64
  3
C9
350
65
  3
D0
350
66
  3
D1
350
67
  3
D2
350
68
  0
DICTIONARY
  5
A5
102
{ACAD_REACTORS
330
C
102
}
330
C
100
AcDbDictionary
281
     1
  0
DICTIONARY
  5
A2
102
{ACAD_REACTORS
330
C
102
}
330
C
100
AcDbDictionary
281
     1
  0
DICTIONARY
  5
A0
102
{ACAD_REACTORS
330
C
102
}
330
C
100
AcDbDictionary
281
     1
  3
CANNOSCALE
350
A1
  0
LAYOUT
  5
1E
102
{ACAD_REACTORS
330
1A
102
}
330
1A
100
AcDbPlotSettings
  1

  2
none_device
  4

  6

 40
0.0
 41
0.0
 42
0.0
 43
0.0
 44
0.0
 45
0.0
 46
0.0
 47
0.0
 48
0.0
 49
0.0
140
0.0
141
0.0
142
1.0
143
1.0
 70
   688
 72
     0
 73
     0
 74
     5
  7

 75
    16
 76
     0
 77
     2
 78
   300
147
1.0
148
0.0
149
0.0
100
AcDbLayout
  1
Layout1
 70
     1
 71
     1
 10
0.0
 20
0.0
 11
12.0
 21
9.0
 12
0.0
 22
0.0
 32
0.0
 14
1.0000000000E+20
 24
1.0000000000E+20
 34
1.0000000000E+20
 15
-1.0000000000E+20
 25
-1.0000000000E+20
 35
-1.0000000000E+20
146
0.0
 13
0.0
 23
0.0
 33
0.0
 16
1.0
 26
0.0
 36
0.0
 17
0.0
 27
1.0
 37
0.0
 76
     0
330
1B
  0
LAYOUT
  5
26
102
{ACAD_REACTORS
330
1A
102
}
330
1A
100
AcDbPlotSettings
  1

  2
none_device
  4

  6

 40
0.0
 41
0.0
 42
0.0
 43
0.0
 44
0.0
 45
0.0
 46
0.0
 47
0.0
 48
0.0
 49
0.0
140
0.0
141
0.0
142
1.0
143
1.0
 70
   688
 72
     0
 73
     0
 74
     5
  7

 75
    16
 76
     0
 77
     2
 78
   300
147
1.0
148
0.0
149
0.0
100
AcDbLayout
  1
Layout2
 70
     1
 71
     2
 10
0.0
 20
0.0
 11
0.0
 21
0.0
 12
0.0
 22
0.0
 32
0.0
 14
0.0
 24
0.0
 34
0.0
 15
0.0
 25
0.0
 35
0.0
146
0.0
 13
0.0
 23
0.0
 33
0.0
 16
1.0
 26
0.0
 36
0.0
 17
0.0
 27
1.0
 37
0.0
 76
     0
330
23
  0
LAYOUT
  5
22
102
{ACAD_REACTORS
330
1A
102
}
330
1A
100
AcDbPlotSettings
  1

  2
none_device
  4
Letter_(8.50_x_11.00_Inches)
  6

 40
6.35
 41
6.35
 42
6.35000508
 43
6.35000508
 44
215.9
 45
279.4
 46
0.0
 47
0.0
 48
0.0
 49
0.0
140
0.0
141
0.0
142
1.0
143
1.0
 70
  1712
 72
     0
 73
     0
 74
     0
  7

 75
     0
 76
     0
 77
     2
 78
   300
147
1.0
148
0.0
149
0.0
100
AcDbLayout
  1
Model
 70
     1
 71
     0
 10
0.0
 20
0.0
 11
78.7401574803
 21
59.0551181102
 12
0.0
 22
0.0
 32
0.0
 14
0.0
 24
0.0
 34
0.0
 15
78.7401574803
 25
59.0551181102
 35
0.0
146
0.0
 13
0.0
 23
0.0
 33
0.0
 16
1.0
 26
0.0
 36
0.0
 17
0.0
 27
1.0
 37
0.0
 76
     0
330
1F
331
29
  0
MATERIAL
  5
45
102
{ACAD_REACTORS
330
43
102
}
330
43
100
AcDbMaterial
  1
ByBlock
  0
MATERIAL
  5
44
102
{ACAD_REACTORS
330
43
102
}
330
43
100
AcDbMaterial
  1
ByLayer
  0
MATERIAL
  5
46
102
{ACAD_REACTORS
330
43
102
}
330
43
100
AcDbMaterial
  1
Global
  0
MLINESTYLE
  5
18
102
{ACAD_REACTORS
330
17
102
}
330
17
100
AcDbMlineStyle
  2
Standard
 70
     0
  3

 62
   256
 51
90.0
 52
90.0
 71
     2
 49
0.5
 62
   256
  6
BYLAYER
 49
-0.5
 62
   256
  6
BYLAYER
  0
ACDBPLACEHOLDER
  5
F
102
{ACAD_REACTORS
330
E
102
}
330
E
  0
SCALE
  5
48
102
{ACAD_REACTORS
330
47
102
}
330
47
100
AcDbScale
 70
     0
300
1:1
140
1.0
141
1.0
290
     1
  0
SCALE
  5
49
102
{ACAD_REACTORS
330
47
102
}
330
47
100
AcDbScale
 70
     0
300
1:2
140
1.0
141
2.0
290
     0
  0
SCALE
  5
4A
102
{ACAD_REACTORS
330
47
102
}
330
47
100
AcDbScale
 70
     0
300
1:4
140
1.0
141
4.0
290
     0
  0
SCALE
  5
4B
102
{ACAD_REACTORS
330
47
102
}
330
47
100
AcDbScale
 70
     0
300
1:5
140
1.0
141
5.0
290
     0
  0
SCALE
  5
4C
102
{ACAD_REACTORS
330
47
102
}
330
47
100
AcDbScale
 70
     0
300
1:8
140
1.0
141
8.0
290
     0
  0
SCALE
  5
4D
102
{ACAD_REACTORS
330
47
102
}
330
47
100
AcDbScale
 70
     0
300
1:10
140
1.0
141
10.0
290
     0
  0
SCALE
  5
4E
102
{ACAD_REACTORS
330
47
102
}
330
47
100
AcDbScale
 70
     0
300
1:16
140
1.0
141
16.0
290
     0
  0
SCALE
  5
4F
102
{ACAD_REACTORS
330
47
102
}
330
47
100
AcDbScale
 70
     0
300
1:20
140
1.0
141
20.0
290
     0
  0
SCALE
  5
50
102
{ACAD_REACTORS
330
47
102
}
330
47
100
AcDbScale
 70
     0
300
1:30
140
1.0
141
30.0
290
     0
  0
SCALE
  5
51
102
{ACAD_REACTORS
330
47
102
}
330
47
100
AcDbScale
 70
     0
300
1:40
140
1.0
141
40.0
290
     0
  0
SCALE
  5
52
102
{ACAD_REACTORS
330
47
102
}
330
47
100
AcDbScale
 70
     0
300
1:50
140
1.0
141
50.0
290
     0
  0
SCALE
  5
53
102
{ACAD_REACTORS
330
47
102
}
330
47
100
AcDbScale
 70
     0
300
1:100
140
1.0
141
100.0
290
     0
  0
SCALE
  5
54
102
{ACAD_REACTORS
330
47
102
}
330
47
100
AcDbScale
 70
     0
300
2:1
140
2.0
141
1.0
290
     0
  0
SCALE
  5
55
102
{ACAD_REACTORS
330
47
102
}
330
47
100
AcDbScale
 70
     0
300
4:1
140
4.0
141
1.0
290
     0
  0
SCALE
  5
56
102
{ACAD_REACTORS
330
47
102
}
330
47
100
AcDbScale
 70
     0
300
8:1
140
8.0
141
1.0
290
     0
  0
SCALE
  5
57
102
{ACAD_REACTORS
330
47
102
}
330
47
100
AcDbScale
 70
     0
300
10:1
140
10.0
141
1.0
290
     0
  0
SCALE
  5
58
102
{ACAD_REACTORS
330
47
102
}
330
47
100
AcDbScale
 70
     0
300
100:1
140
100.0
141
1.0
290
     0
  0
SCALE
  5
59
102
{ACAD_REACTORS
330
47
102
}
330
47
100
AcDbScale
 70
     0
300
1/128" = 1'-0"
140
0.0078125
141
12.0
290
     0
  0
SCALE
  5
5A
102
{ACAD_REACTORS
330
47
102
}
330
47
100
AcDbScale
 70
     0
300
1/64" = 1'-0"
140
0.015625
141
12.0
290
     0
  0
SCALE
  5
5B
102
{ACAD_REACTORS
330
47
102
}
330
47
100
AcDbScale
 70
     0
300
1/32" = 1'-0"
140
0.03125
141
12.0
290
     0
  0
SCALE
  5
5C
102
{ACAD_REACTORS
330
47
102
}
330
47
100
AcDbScale
 70
     0
300
1/16" = 1'-0"
140
0.0625
141
12.0
290
     0
  0
SCALE
  5
5D
102
{ACAD_REACTORS
330
47
102
}
330
47
100
AcDbScale
 70
     0
300
3/32" = 1'-0"
140
0.09375
141
12.0
290
     0
  0
SCALE
  5
5E
102
{ACAD_REACTORS
330
47
102
}
330
47
100
AcDbScale
 70
     0
300
1/8" = 1'-0"
140
0.125
141
12.0
290
     0
  0
SCALE
  5
5F
102
{ACAD_REACTORS
330
47
102
}
330
47
100
AcDbScale
 70
     0
300
3/16" = 1'-0"
140
0.1875
141
12.0
290
     0
  0
SCALE
  5
60
102
{ACAD_REACTORS
330
47
102
}
330
47
100
AcDbScale
 70
     0
300
1/4" = 1'-0"
140
0.25
141
12.0
290
     0
  0
SCALE
  5
61
102
{ACAD_REACTORS
330
47
102
}
330
47
100
AcDbScale
 70
     0
300
3/8" = 1'-0"
140
0.375
141
12.0
290
     0
  0
SCALE
  5
62
102
{ACAD_REACTORS
330
47
102
}
330
47
100
AcDbScale
 70
     0
300
1/2" = 1'-0"
140
0.5
141
12.0
290
     0
  0
SCALE
  5
63
102
{ACAD_REACTORS
330
47
102
}
330
47
100
AcDbScale
 70
     0
300
3/4" = 1'-0"
140
0.75
141
12.0
290
     0
  0
SCALE
  5
64
102
{ACAD_REACTORS
330
47
102
}
330
47
100
AcDbScale
 70
     0
300
1" = 1'-0"
140
1.0
141
12.0
290
     0
  0
SCALE
  5
65
102
{ACAD_REACTORS
330
47
102
}
330
47
100
AcDbScale
 70
     0
300
1-1/2" = 1'-0"
140
1.5
141
12.0
290
     0
  0
SCALE
  5
66
102
{ACAD_REACTORS
330
47
102
}
330
47
100
AcDbScale
 70
     0
300
3" = 1'-0"
140
3.0
141
12.0
290
     0
  0
SCALE
  5
67
102
{ACAD_REACTORS
330
47
102
}
330
47
100
AcDbScale
 70
     0
300
6" = 1'-0"
140
6.0
141
12.0
290
     0
  0
SCALE
  5
68
102
{ACAD_REACTORS
330
47
102
}
330
47
100
AcDbScale
 70
     0
300
1'-0" = 1'-0"
140
12.0
141
12.0
290
     0
  0
DICTIONARYVAR
  5
A1
102
{ACAD_REACTORS
330
A0
102
}
330
A0
100
DictionaryVariables
280
     0
  1
1:1
  0
ENDSEC
  0
EOF
