  0
SECTION
  2
HEADER
  9
$ACADVER
  1
AC1018
  9
$ACADMAINTVER
 70
     0
  9
$DWGCODEPAGE
  3
ANSI_1252
  9
$INSBASE
 10
0.0
 20
0.0
 30
0.0
  9
$EXTMIN
 10
0.0
 20
0.0
 30
0.0
  9
$EXTMAX
 10
78.7401574803
 20
59.0551181102
 30
0.0
  9
$LIMMIN
 10
0.0
 20
0.0
  9
$LIMMAX
 10
78.7401574803
 20
59.0551181102
  9
$ORTHOMODE
 70
     0
  9
$REGENMODE
 70
     1
  9
$FILLMODE
 70
     1
  9
$QTEXTMODE
 70
     0
  9
$MIRRTEXT
 70
     1
  9
$LTSCALE
 40
1.0
  9
$ATTMODE
 70
     1
  9
$TEXTSIZE
 40
0.1377952756
  9
$TRACEWID
 40
0.05
  9
$TEXTSTYLE
  7
STANDARD
  9
$CLAYER
  8
0
  9
$CELTYPE
  6
ByLayer
  9
$CECOLOR
 62
   256
  9
$CELTSCALE
 40
1.0
  9
$DISPSILH
 70
     0
  9
$DIMSCALE
 40
1.0
  9
$DIMASZ
 40
0.2362204724
  9
$DIMEXO
 40
0.0393700787
  9
$DIMDLI
 40
0.38
  9
$DIMRND
 40
0.0
  9
$DIMDLE
 40
0.0
  9
$DIMEXE
 40
0.0393700787
  9
$DIMTP
 40
0.0
  9
$DIMTM
 40
0.0
  9
$DIMTXT
 40
0.1377952756
  9
$DIMCEN
 40
0.09
  9
$DIMTSZ
 40
0.0
  9
$DIMTOL
 70
     0
  9
$DIMLIM
 70
     0
  9
$DIMTIH
 70
     1
  9
$DIMTOH
 70
     1
  9
$DIMSE1
 70
     0
  9
$DIMSE2
 70
     0
  9
$DIMTAD
 70
     1
  9
$DIMZIN
 70
     0
  9
$DIMBLK
  1

  9
$DIMASO
 70
     1
  9
$DIMSHO
 70
     1
  9
$DIMPOST
  1

  9
$DIMAPOST
  1

  9
$DIMALT
 70
     0
  9
$DIMALTD
 70
     2
  9
$DIMALTF
 40
25.4
  9
$DIMLFAC
 40
1.0
  9
$DIMTOFL
 70
     0
  9
$DIMTVP
 40
0.0
  9
$DIMTIX
 70
     0
  9
$DIMSOXD
 70
     0
  9
$DIMSAH
 70
     0
  9
$DIMBLK1
  1

  9
$DIMBLK2
  1

  9
$DIMSTYLE
  2
Standard
  9
$DIMCLRD
 70
     0
  9
$DIMCLRE
 70
     0
  9
$DIMCLRT
 70
     0
  9
$DIMTFAC
 40
1.0
  9
$DIMGAP
 40
0.06
  9
$DIMJUST
 70
     0
  9
$DIMSD1
 70
     0
  9
$DIMSD2
 70
     0
  9
$DIMTOLJ
 70
     1
  9
$DIMTZIN
 70
     0
  9
$DIMALTZ
 70
     0
  9
$DIMALTTZ
 70
     0
  9
$DIMUPT
 70
     0
  9
$DIMDEC
 70
     3
  9
$DIMTDEC
 70
     3
  9
$DIMALTU
 70
     2
  9
$DIMALTTD
 70
     2
  9
$DIMTXSTY
  7
STANDARD
  9
$DIMAUNIT
 70
     0
  9
$DIMADEC
 70
     2
  9
$DIMALTRND
 40
0.0
  9
$DIMAZIN
 70
     0
  9
$DIMDSEP
 70
    46
  9
$DIMATFIT
 70
     3
  9
$DIMFRAC
 70
     0
  9
$DIMLDRBLK
  1

  9
$DIMLUNIT
 70
     2
  9
$DIMLWD
 70
    -2
  9
$DIMLWE
 70
    -2
  9
$DIMTMOVE
 70
     0
  9
$LUNITS
 70
     2
  9
$LUPREC
 70
     2
  9
$SKETCHINC
 40
0.1
  9
$FILLETRAD
 40
0.5
  9
$AUNITS
 70
     0
  9
$AUPREC
 70
     2
  9
$MENU
  1
.
  9
$ELEVATION
 40
0.0
  9
$PELEVATION
 40
0.0
  9
$THICKNESS
 40
0.0
  9
$LIMCHECK
 70
     0
  9
$CHAMFERA
 40
0.0
  9
$CHAMFERB
 40
0.0
  9
$CHAMFERC
 40
0.0
  9
$CHAMFERD
 40
0.0
  9
$SKPOLY
 70
     0
  9
$TDCREATE
 40
2457707.706290764
  9
$TDUCREATE
 40
2457707.956290764
  9
$TDUPDATE
 40
2457707.706291019
  9
$TDUUPDATE
 40
2457707.956291019
  9
$TDINDWG
 40
0.0000000116
  9
$TDUSRTIMER
 40
0.0000000116
  9
$USRTIMER
 70
     1
  9
$ANGBASE
 50
0.0
  9
$ANGDIR
 70
     0
  9
$PDMODE
 70
     0
  9
$PDSIZE
 40
-1.0
  9
$PLINEWID
 40
0.0
  9
$SPLFRAME
 70
     0
  9
$SPLINETYPE
 70
     6
  9
$SPLINESEGS
 70
     8
  9
$HANDSEED
  5
A3
  9
$SURFTAB1
 70
     6
  9
$SURFTAB2
 70
     6
  9
$SURFTYPE
 70
     6
  9
$SURFU
 70
     6
  9
$SURFV
 70
     6
  9
$UCSBASE
  2

  9
$UCSNAME
  2

  9
$UCSORG
 10
0.0
 20
0.0
 30
0.0
  9
$UCSXDIR
 10
1.0
 20
0.0
 30
0.0
  9
$UCSYDIR
 10
0.0
 20
1.0
 30
0.0
  9
$UCSORTHOREF
  2

  9
$UCSORTHOVIEW
 70
     0
  9
$UCSORGTOP
 10
0.0
 20
0.0
 30
0.0
  9
$UCSORGBOTTOM
 10
0.0
 20
0.0
 30
0.0
  9
$UCSORGLEFT
 10
0.0
 20
0.0
 30
0.0
  9
$UCSORGRIGHT
 10
0.0
 20
0.0
 30
0.0
  9
$UCSORGFRONT
 10
0.0
 20
0.0
 30
0.0
  9
$UCSORGBACK
 10
0.0
 20
0.0
 30
0.0
  9
$PUCSBASE
  2

  9
$PUCSNAME
  2

  9
$PUCSORG
 10
0.0
 20
0.0
 30
0.0
  9
$PUCSXDIR
 10
1.0
 20
0.0
 30
0.0
  9
$PUCSYDIR
 10
0.0
 20
1.0
 30
0.0
  9
$PUCSORTHOREF
  2

  9
$PUCSORTHOVIEW
 70
     0
  9
$PUCSORGTOP
 10
0.0
 20
0.0
 30
0.0
  9
$PUCSORGBOTTOM
 10
0.0
 20
0.0
 30
0.0
  9
$PUCSORGLEFT
 10
0.0
 20
0.0
 30
0.0
  9
$PUCSORGRIGHT
 10
0.0
 20
0.0
 30
0.0
  9
$PUCSORGFRONT
 10
0.0
 20
0.0
 30
0.0
  9
$PUCSORGBACK
 10
0.0
 20
0.0
 30
0.0
  9
$USERI1
 70
     0
  9
$USERI2
 70
     0
  9
$USERI3
 70
     0
  9
$USERI4
 70
     0
  9
$USERI5
 70
     0
  9
$USERR1
 40
0.0
  9
$USERR2
 40
0.0
  9
$USERR3
 40
0.0
  9
$USERR4
 40
0.0
  9
$USERR5
 40
0.0
  9
$WORLDVIEW
 70
     1
  9
$SHADEDGE
 70
     3
  9
$SHADEDIF
 70
    70
  9
$TILEMODE
 70
     1
  9
$MAXACTVP
 70
    64
  9
$PINSBASE
 10
0.0
 20
0.0
 30
0.0
  9
$PLIMCHECK
 70
     0
  9
$PEXTMIN
 10
1.0000000000E+20
 20
1.0000000000E+20
 30
1.0000000000E+20
  9
$PEXTMAX
 10
-1.0000000000E+20
 20
-1.0000000000E+20
 30
-1.0000000000E+20
  9
$PLIMMIN
 10
0.0
 20
0.0
  9
$PLIMMAX
 10
12.0
 20
9.0
  9
$UNITMODE
 70
     0
  9
$VISRETAIN
 70
     1
  9
$PLINEGEN
 70
     0
  9
$PSLTSCALE
 70
     1
  9
$TREEDEPTH
 70
  3020
  9
$CMLSTYLE
  2
Standard
  9
$CMLJUST
 70
     0
  9
$CMLSCALE
 40
1.0
  9
$PROXYGRAPHICS
 70
     1
  9
$MEASUREMENT
 70
     0
  9
$CELWEIGHT
370
    -1
  9
$ENDCAPS
280
     0
  9
$JOINSTYLE
280
     0
  9
$LWDISPLAY
290
     1
  9
$INSUNITS
 70
     1
  9
$HYPERLINKBASE
  1

  9
$STYLESHEET
  1

  9
$XEDIT
290
     1
  9
$CEPSNTYPE
380
     0
  9
$PSTYLEMODE
290
     1
  9
$FINGERPRINTGUID
  2
{7B7FD26C-50AC-403C-921A-2F1C0B79B0C1}
  9
$VERSIONGUID
  2
{FAEB1C32-E019-11D5-929B-00C0DF256EC4}
  9
$EXTNAMES
290
     1
  9
$PSVPSCALE
 40
0.0
  9
$OLESTARTUP
290
     0
  9
$SORTENTS
280
   127
  9
$INDEXCTL
280
     0
  9
$HIDETEXT
280
     1
  9
$XCLIPFRAME
290
     0
  9
$HALOGAP
280
     0
  9
$OBSCOLOR
 70
   257
  9
$OBSLTYPE
280
     0
  9
$INTERSECTIONDISPLAY
280
     0
  9
$INTERSECTIONCOLOR
 70
   257
  9
$DIMASSOC
280
     2
  9
$PROJECTNAME
  1

  0
ENDSEC
  0
SECTION
  2
CLASSES
  0
CLASS
  1
ACDBDICTIONARYWDFLT
  2
AcDbDictionaryWithDefault
  3
ObjectDBX Classes
 90
        0
 91
        4
280
     0
281
     0
  0
CLASS
  1
VISUALSTYLE
  2
AcDbVisualStyle
  3
ObjectDBX Classes
 90
     4095
 91
        4
280
     0
281
     0
  0
CLASS
  1
MATERIAL
  2
AcDbMaterial
  3
ObjectDBX Classes
 90
     1153
 91
        4
280
     0
281
     0
  0
CLASS
  1
SCALE
  2
AcDbScale
  3
ObjectDBX Classes
 90
     1153
 91
        4
280
     0
281
     0
  0
CLASS
  1
SUN
  2
AcDbSun
  3
SCENEOE
 90
     1153
 91
        4
280
     0
281
     0
  0
CLASS
  1
DICTIONARYVAR
  2
AcDbDictionaryVar
  3
ObjectDBX Classes
 90
        0
 91
        4
280
     0
281
     0
  0
ENDSEC
  0
SECTION
  2
TABLES
  0
TABLE
  2
VPORT
  5
8
330
0
100
AcDbSymbolTable
 70
     1
  0
VPORT
  5
29
330
8
100
AcDbSymbolTableRecord
100
AcDbViewportTableRecord
  2
*Active
 70
     0
 10
0.0
 20
0.0
 11
1.0
 21
1.0
 12
39.3700787402
 22
29.5275590551
 13
0.0
 23
0.0
 14
0.5
 24
0.5
 15
0.5
 25
0.5
 16
0.0
 26
0.0
 36
1.0
 17
0.0
 27
0.0
 37
0.0
 40
59.0551181102
 41
1.3333333333
 42
50.0
 43
0.0
 44
0.0
 50
0.0
 51
0.0
 71
     0
 72
  2000
 73
     1
 74
     3
 75
     0
 76
     0
 77
     0
 78
     0
281
     0
 65
     1
110
0.0
120
0.0
130
0.0
111
1.0
121
0.0
131
0.0
112
0.0
122
1.0
132
0.0
 79
     0
146
0.0
  0
ENDTAB
  0
TABLE
  2
LTYPE
  5
5
330
0
100
AcDbSymbolTable
 70
     6
  0
LTYPE
  5
14
330
5
100
AcDbSymbolTableRecord
100
AcDbLinetypeTableRecord
  2
ByBlock
 70
     0
  3

 72
    65
 73
     0
 40
0.0
  0
LTYPE
  5
15
330
5
100
AcDbSymbolTableRecord
100
AcDbLinetypeTableRecord
  2
ByLayer
 70
     0
  3

 72
    65
 73
     0
 40
0.0
  0
LTYPE
  5
16
330
5
100
AcDbSymbolTableRecord
100
AcDbLinetypeTableRecord
  2
Continuous
 70
     0
  3
Solid line
 72
    65
 73
     0
 40
0.0
  0
LTYPE
  5
6A
330
5
100
AcDbSymbolTableRecord
100
AcDbLinetypeTableRecord
  2
HIDDEN
 70
     0
  3
Hidden __ __ __ __ __ __ __ __ __ __ __ __ __ __
 72
    65
 73
     2
 40
0.075
 49
0.05
 74
     0
 49
-0.025
 74
     0
  0
LTYPE
  5
6B
330
5
100
AcDbSymbolTableRecord
100
AcDbLinetypeTableRecord
  2
PHANTOM
 70
     0
  3
Phantom ______  __  __  ______  __  __  ______
 72
    65
 73
     6
 40
0.5
 49
0.25
 74
     0
 49
-0.05
 74
     0
 49
0.05
 74
     0
 49
-0.05
 74
     0
 49
0.05
 74
     0
 49
-0.05
 74
     0
  0
LTYPE
  5
6C
330
5
100
AcDbSymbolTableRecord
100
AcDbLinetypeTableRecord
  2
CENTER
 70
     0
  3
Center ____ _ ____ _ ____ _ ____ _ ____ _ ____
 72
    65
 73
     4
 40
0.4
 49
0.25
 74
     0
 49
-0.05
 74
     0
 49
0.05
 74
     0
 49
-0.05
 74
     0
  0
LTYPE
  5
6D
330
5
100
AcDbSymbolTableRecord
100
AcDbLinetypeTableRecord
  2
CENTERX2
 70
     0
  3
Center (2x) ________  __  ________  __  _____
 72
    65
 73
     4
 40
0.8
 49
0.5
 74
     0
 49
-0.1
 74
     0
 49
0.1
 74
     0
 49
-0.1
 74
     0
  0
LTYPE
  5
6E
330
5
100
AcDbSymbolTableRecord
100
AcDbLinetypeTableRecord
  2
DOT2
 70
     0
  3
Dot (.5x) ........................................
 72
    65
 73
     2
 40
0.025
 49
0.0
 74
     0
 49
-0.025
 74
     0
  0
ENDTAB
  0
TABLE
  2
LAYER
  5
2
330
0
100
AcDbSymbolTable
 70
     1
  0
LAYER
  5
10
330
2
100
AcDbSymbolTableRecord
100
AcDbLayerTableRecord
  2
0
 70
     0
 62
     7
  6
Continuous
370
    -3
390
F
  0
ENDTAB
  0
TABLE
  2
STYLE
  5
3
330
0
100
AcDbSymbolTable
 70
     1
  0
STYLE
  5
11
330
3
100
AcDbSymbolTableRecord
100
AcDbTextStyleTableRecord
  2
STANDARD
 70
     0
 40
0.0
 41
1.0
 50
0.0
 71
     0
 42
0.1377952756
  3
GOTHIC.TTF
  4

1001
ACAD
1000
CENTURY GOTHIC
1071
       34
  0
ENDTAB
  0
TABLE
  2
VIEW
  5
6
330
0
100
AcDbSymbolTable
 70
     0
  0
ENDTAB
  0
TABLE
  2
UCS
  5
7
330
0
100
AcDbSymbolTable
 70
     0
  0
ENDTAB
  0
TABLE
  2
APPID
  5
9
330
0
100
AcDbSymbolTable
 70
     1
  0
APPID
  5
12
330
9
100
AcDbSymbolTableRecord
100
AcDbRegAppTableRecord
  2
ACAD
 70
     0
  0
ENDTAB
  0
TABLE
  2
DIMSTYLE
  5
A
330
0
100
AcDbSymbolTable
 70
     1
100
AcDbDimStyleTable
  0
DIMSTYLE
105
27
330
A
100
AcDbSymbolTableRecord
100
AcDbDimStyleTableRecord
  2
Standard
 70
     0
178
     0
340
11
  0
ENDTAB
  0
TABLE
  2
BLOCK_RECORD
  5
1
330
0
100
AcDbSymbolTable
 70
     1
  0
BLOCK_RECORD
  5
1F
330
1
100
AcDbSymbolTableRecord
100
AcDbBlockTableRecord
  2
*Model_Space
340
22
  0
BLOCK_RECORD
  5
1B
330
1
100
AcDbSymbolTableRecord
100
AcDbBlockTableRecord
  2
*Paper_Space
340
1E
  0
BLOCK_RECORD
  5
23
330
1
100
AcDbSymbolTableRecord
100
AcDbBlockTableRecord
  2
*Paper_Space0
340
26
  0
ENDTAB
  0
ENDSEC
  0
SECTION
  2
BLOCKS
  0
BLOCK
  5
20
330
1F
100
AcDbEntity
  8
0
100
AcDbBlockBegin
  2
*Model_Space
 70
     0
 10
0.0
 20
0.0
 30
0.0
  3
*Model_Space
  1
*Model_Space
  0
ENDBLK
  5
21
330
1F
100
AcDbEntity
  8
0
100
AcDbBlockEnd
  0
BLOCK
  5
1C
330
1B
100
AcDbEntity
 67
     1
  8
0
100
AcDbBlockBegin
  2
*Paper_Space
 70
     0
 10
0.0
 20
0.0
 30
0.0
  3
*Paper_Space
  1
*Paper_Space
  0
ENDBLK
  5
1D
330
1B
100
AcDbEntity
 67
     1
  8
0
100
AcDbBlockEnd
  0
BLOCK
  5
24
330
23
100
AcDbEntity
  8
0
100
AcDbBlockBegin
  2
*Paper_Space0
 70
     0
 10
0.0
 20
0.0
 30
0.0
  3
*Paper_Space0
  1
*Paper_Space0
  0
ENDBLK
  5
25
330
23
100
AcDbEntity
  8
0
100
AcDbBlockEnd
  0
ENDSEC
  0
SECTION
  2
ENTITIES
  0
ARC
  5
6F
330
1F
100
AcDbEntity
  8
0
  6
Continuous
 62
     7
370
    15
100
AcDbCircle
 10
46.0592448538
 20
21.7731613729
 30
0.0
 40
0.75
100
AcDbArc
 50
270.0
 51
8.6533817431
  0
ARC
  5
70
330
1F
100
AcDbEntity
  8
0
  6
Continuous
 62
     7
370
    15
100
AcDbCircle
 10
30.7938129877
 20
21.7731613729
 30
0.0
 40
0.7500000000000021
100
AcDbArc
 50
171.3466182569
 51
270.0
  0
ARC
  5
71
330
1F
100
AcDbEntity
  8
0
  6
Continuous
 62
     7
370
    15
100
AcDbCircle
 10
99.2555147374
 20
11.3540494369
 30
0.0
 40
70.0
100
AcDbArc
 50
161.2653338276
 51
171.3466182569
  0
ARC
  5
72
330
1F
100
AcDbEntity
  8
0
  6
Continuous
 62
     7
370
    15
100
AcDbCircle
 10
99.2555147374
 20
11.3540494369
 30
0.0
 40
70.0
100
AcDbArc
 50
160.5085685028
 51
161.0516851164
  0
ARC
  5
73
330
1F
100
AcDbEntity
  8
0
  6
Continuous
 62
     7
370
    15
100
AcDbCircle
 10
-22.4024568959
 20
11.3540494369
 30
0.0
 40
70.0
100
AcDbArc
 50
8.6533817431
 51
19.4914314972
  0
LINE
  5
74
330
1F
100
AcDbEntity
  8
0
  6
Continuous
 62
     7
370
    15
100
AcDbLine
 10
46.0592448538
 20
21.0231613729
 30
0.0
 11
30.7938129877
 21
21.0231613729
 31
0.0
  0
LINE
  5
75
330
1F
100
AcDbEntity
  8
0
  6
Continuous
 62
     7
370
    15
100
AcDbLine
 10
43.5859411667
 20
34.7106613729
 30
0.0
 11
33.2671166748
 21
34.7106613729
 31
0.0
  0
SPLINE
  5
76
330
1F
100
AcDbEntity
  8
0
  6
Continuous
 62
     7
370
    15
100
AcDbSpline
210
0.0
220
0.0
230
1.0
 70
     8
 71
     3
 72
    17
 73
    13
 74
     0
 42
0.000000001
 43
0.00000001
 40
0.0
 40
0.0
 40
0.0
 40
0.0
 40
0.0677545261617583
 40
0.1661411234149258
 40
0.2670432233609403
 40
0.3732277256361625
 40
0.4853100631355869
 40
0.6012999673677463
 40
0.7172355518514549
 40
0.8292167566486767
 40
0.9355370329001917
 40
1.0
 40
1.0
 40
1.0
 40
1.0
 10
32.96441889229889
 20
33.83707335505657
 30
0.0
 10
32.96442809046523
 20
33.83709815993056
 30
0.0
 10
32.96445064532279
 20
33.83715898405354
 30
0.0
 10
32.96973905437353
 20
33.85179494447441
 30
0.0
 10
32.97890243489813
 20
33.87740513210826
 30
0.0
 10
32.99144654251074
 20
33.91296769204845
 30
0.0
 10
33.00602280456937
 20
33.95509007315959
 30
0.0
 10
33.02095860055974
 20
33.99920934856897
 30
0.0
 10
33.03421928230643
 20
34.03927353922864
 30
0.0
 10
33.04373900549108
 20
34.06857646157962
 30
0.0
 10
33.0488124582179
 20
34.08439532211874
 30
0.0
 10
33.04874417137055
 20
34.08418354023305
 30
0.0
 10
33.04871839616738
 20
34.08410360212869
 30
0.0
  0
SPLINE
  5
77
330
1F
100
AcDbEntity
  8
0
  6
Continuous
 62
     7
370
    15
100
AcDbSpline
210
0.0
220
0.0
230
1.0
 70
    11
 71
     3
 72
    68
 73
    64
 74
     0
 42
0.000000001
 43
0.00000001
 40
0.0
 40
0.0
 40
0.0
 40
0.0
 40
0.0312499999999993
 40
0.0312499999999993
 40
0.0624999999999987
 40
0.0624999999999987
 40
0.093749999999998
 40
0.093749999999998
 40
0.1249999999999974
 40
0.1249999999999974
 40
0.1562499999999967
 40
0.1562499999999967
 40
0.1874999999999961
 40
0.1874999999999961
 40
0.2187499999999954
 40
0.2187499999999954
 40
0.2499999999999947
 40
0.2499999999999947
 40
0.2812499999999941
 40
0.2812499999999941
 40
0.3124999999999934
 40
0.3124999999999934
 40
0.3437499999999927
 40
0.3437499999999927
 40
0.3749999999999921
 40
0.3749999999999921
 40
0.4062499999999915
 40
0.4062499999999915
 40
0.4374999999999908
 40
0.4374999999999908
 40
0.4687499999999901
 40
0.4687499999999901
 40
0.4999999999999895
 40
0.4999999999999895
 40
0.5312499999999888
 40
0.5312499999999888
 40
0.5624999999999881
 40
0.5624999999999881
 40
0.5937499999999875
 40
0.5937499999999875
 40
0.6249999999999868
 40
0.6249999999999868
 40
0.6562499999999861
 40
0.6562499999999861
 40
0.6874999999999855
 40
0.6874999999999855
 40
0.7187499999999848
 40
0.7187499999999848
 40
0.7499999999999842
 40
0.7499999999999842
 40
0.7812499999999836
 40
0.7812499999999836
 40
0.8124999999999829
 40
0.8124999999999829
 40
0.8749999999999831
 40
0.8749999999999831
 40
0.9062499999999873
 40
0.9062499999999873
 40
0.9374999999999916
 40
0.9374999999999916
 40
0.9687499999999958
 40
0.9687499999999958
 40
1.0
 40
1.0
 40
1.0
 40
1.0
 10
41.06183345951219
 20
33.88621495782827
 30
0.0
 10
41.06720523752531
 20
33.87965546007329
 30
0.0
 10
41.07299247800651
 20
33.87363837266186
 30
0.0
 10
41.08538883226903
 20
33.86267974420283
 30
0.0
 10
41.09208128083736
 20
33.85769095202632
 30
0.0
 10
41.10590858571702
 20
33.84918130245267
 30
0.0
 10
41.11301891055676
 20
33.8456510077167
 30
0.0
 10
41.12763885606336
 20
33.84007171841589
 30
0.0
 10
41.13518666096265
 20
33.83803775328544
 30
0.0
 10
41.14996023724932
 20
33.8357116328624
 30
0.0
 10
41.15727548282905
 20
33.83537560568082
 30
0.0
 10
41.17175629915756
 20
33.83642931519648
 30
0.0
 10
41.17868497898505
 20
33.83780560854994
 30
0.0
 10
41.19185934395052
 20
33.84215742678651
 30
0.0
 10
41.19818243642906
 20
33.8451848620653
 30
0.0
 10
41.20970390325836
 20
33.85262533833164
 30
0.0
 10
41.21494041430059
 20
33.85702901518047
 30
0.0
 10
41.2243913192137
 20
33.8671769155701
 30
0.0
 10
41.22854271578736
 20
33.87287717796212
 30
0.0
 10
41.23552750803511
 20
33.88513753726357
 30
0.0
 10
41.23841900502774
 20
33.89179373604464
 30
0.0
 10
41.24287575200509
 20
33.905843555719
 30
0.0
 10
41.24442104509443
 20
33.91313564447857
 30
0.0
 10
41.24620738821518
 20
33.92823327936519
 30
0.0
 10
41.24643771597631
 20
33.93611672690848
 30
0.0
 10
41.24556097226764
 20
33.95188644601848
 30
0.0
 10
41.24447106140642
 20
33.95980057107541
 30
0.0
 10
41.24098831865374
 20
33.9756876222709
 30
0.0
 10
41.23856720309379
 20
33.98370000392888
 30
0.0
 10
41.23257402806383
 20
33.99914761817779
 30
0.0
 10
41.22899203390025
 20
34.00666106495562
 30
0.0
 10
41.22061247599649
 20
34.02125033300942
 30
0.0
 10
41.21581013027615
 20
34.02829889710183
 30
0.0
 10
41.20535943390974
 20
34.04132142231323
 30
0.0
 10
41.1996678658609
 20
34.04737868227839
 30
0.0
 10
41.18728736640282
 20
34.05852342607032
 30
0.0
 10
41.18071203988639
 20
34.0634936503435
 30
0.0
 10
41.16709690660419
 20
34.0720035074752
 30
0.0
 10
41.15995483626158
 20
34.07560668953539
 30
0.0
 10
41.14532004745947
 20
34.08124772830649
 30
0.0
 10
41.1379754756486
 20
34.08324190326631
 30
0.0
 10
41.12323041821273
 20
34.08559777414631
 30
0.0
 10
41.11575547212778
 20
34.08594107827966
 30
0.0
 10
41.10140379582764
 20
34.08491053848564
 30
0.0
 10
41.09446302557308
 20
34.0835633647296
 30
0.0
 10
41.08105963298776
 20
34.07918350620152
 30
0.0
 10
41.07472747269141
 20
34.0761789412405
 30
0.0
 10
41.0630672473864
 20
34.06875739450067
 30
0.0
 10
41.05763842897975
 20
34.06426539980415
 30
0.0
 10
41.04800290497801
 20
34.05408543329
 30
0.0
 10
41.04380104969171
 20
34.04843480331149
 30
0.0
 10
41.03659183593852
 20
34.03605320078132
 30
0.0
 10
41.03359768492817
 20
34.02929996381423
 30
0.0
 10
41.02675403664232
 20
34.00826005880902
 30
0.0
 10
41.02488344031731
 20
33.99267701561239
 30
0.0
 10
41.02619728543011
 20
33.96905581438958
 30
0.0
 10
41.02731621990559
 20
33.96103729249565
 30
0.0
 10
41.03089433164197
 20
33.94507095180977
 30
0.0
 10
41.03331808905634
 20
33.93723593140176
 30
0.0
 10
41.0394066115277
 20
33.9218549687826
 30
0.0
 10
41.04311213802616
 20
33.91424421559208
 30
0.0
 10
41.05165027626795
 20
33.89969983559268
 30
0.0
 10
41.05646168149907
 20
33.89277445558326
 30
0.0
 10
41.06183345951219
 20
33.88621495782827
 30
0.0
  0
SPLINE
  5
78
330
1F
100
AcDbEntity
  8
0
  6
Continuous
 62
     7
370
    15
100
AcDbSpline
210
0.0
220
0.0
230
1.0
 70
     8
 71
     3
 72
    17
 73
    13
 74
     0
 42
0.000000001
 43
0.00000001
 40
0.0
 40
0.0
 40
0.0
 40
0.0
 40
0.0524155820061934
 40
0.1507067980999072
 40
0.2509393292601803
 40
0.3561482689065427
 40
0.4673330851879588
 40
0.582904985852252
 40
0.6991016586922933
 40
0.8118478706303623
 40
0.9190095651013509
 40
1.0
 40
1.0
 40
1.0
 40
1.0
 10
41.14169336294267
 20
33.83729834028384
 30
0.0
 10
41.14786272962036
 20
33.83700988479641
 30
0.0
 10
41.16560107121101
 20
33.83618050923213
 30
0.0
 10
41.19119393520177
 20
33.84877538496523
 30
0.0
 10
41.2149118225833
 20
33.87261270406682
 30
0.0
 10
41.22921965964395
 20
33.90686446847204
 30
0.0
 10
41.23201753512092
 20
33.94817995227048
 30
0.0
 10
41.22168446772646
 20
33.99238841515624
 30
0.0
 10
41.19863756942814
 20
34.03350989470957
 30
0.0
 10
41.16607607200543
 20
34.06483895904498
 30
0.0
 10
41.13109943550062
 20
34.08326304335072
 30
0.0
 10
41.10894607796968
 20
34.08416094928862
 30
0.0
 10
41.09941012391533
 20
34.08454745457373
 30
0.0
  0
LINE
  5
79
330
1F
100
AcDbEntity
  8
0
  6
Continuous
 62
     8
370
    15
100
AcDbLine
 10
30.0523505139
 20
21.8860037405
 30
0.0
 11
46.8007073276
 21
21.8860037405
 31
0.0
  0
ARC
  5
7A
330
1F
100
AcDbEntity
  8
0
  6
Continuous
 62
     7
370
    15
100
AcDbCircle
 10
23.3385652019
 20
21.7731613729
 30
0.0
 40
0.7500000000000056
100
AcDbArc
 50
270.0
 51
8.6533817431
  0
ARC
  5
7B
330
1F
100
AcDbEntity
  8
0
  6
Continuous
 62
     7
370
    15
100
AcDbCircle
 10
8.0731333358
 20
21.7731613729
 30
0.0
 40
0.7500000000000021
100
AcDbArc
 50
171.3466182569
 51
270.0
  0
ARC
  5
7C
330
1F
100
AcDbEntity
  8
0
  6
Continuous
 62
     7
370
    15
100
AcDbCircle
 10
76.5348350855
 20
11.3540494369
 30
0.0
 40
70.0
100
AcDbArc
 50
160.5085685028
 51
171.3466182569
  0
ARC
  5
7D
330
1F
100
AcDbEntity
  8
0
  6
Continuous
 62
     7
370
    15
100
AcDbCircle
 10
-45.1231365478
 20
11.3540494369
 30
0.0
 40
70.0
100
AcDbArc
 50
8.6533817431
 51
19.4914314972
  0
LINE
  5
7E
330
1F
100
AcDbEntity
  8
0
  6
Continuous
 62
     7
370
    15
100
AcDbLine
 10
23.3385652019
 20
21.0231613729
 30
0.0
 11
8.0731333358
 21
21.0231613729
 31
0.0
  0
LINE
  5
7F
330
1F
100
AcDbEntity
  8
0
  6
Continuous
 62
     7
370
    15
100
AcDbLine
 10
20.8652615148
 20
34.7106613729
 30
0.0
 11
10.5464370229
 21
34.7106613729
 31
0.0
  0
SPLINE
  5
80
330
1F
100
AcDbEntity
  8
0
  6
Continuous
 62
     7
370
    15
100
AcDbSpline
210
0.0
220
0.0
230
1.0
 70
    11
 71
     3
 72
    68
 73
    64
 74
     0
 42
0.000000001
 43
0.00000001
 40
0.0
 40
0.0
 40
0.0
 40
0.0
 40
0.0312499999999993
 40
0.0312499999999993
 40
0.0624999999999987
 40
0.0624999999999987
 40
0.093749999999998
 40
0.093749999999998
 40
0.1249999999999974
 40
0.1249999999999974
 40
0.1562499999999967
 40
0.1562499999999967
 40
0.1874999999999961
 40
0.1874999999999961
 40
0.2187499999999954
 40
0.2187499999999954
 40
0.2499999999999947
 40
0.2499999999999947
 40
0.2812499999999941
 40
0.2812499999999941
 40
0.3124999999999934
 40
0.3124999999999934
 40
0.3437499999999927
 40
0.3437499999999927
 40
0.3749999999999921
 40
0.3749999999999921
 40
0.4062499999999915
 40
0.4062499999999915
 40
0.4374999999999908
 40
0.4374999999999908
 40
0.4687499999999901
 40
0.4687499999999901
 40
0.4999999999999895
 40
0.4999999999999895
 40
0.5312499999999888
 40
0.5312499999999888
 40
0.5624999999999881
 40
0.5624999999999881
 40
0.5937499999999875
 40
0.5937499999999875
 40
0.6249999999999868
 40
0.6249999999999868
 40
0.6562499999999861
 40
0.6562499999999861
 40
0.6874999999999855
 40
0.6874999999999855
 40
0.7187499999999848
 40
0.7187499999999848
 40
0.7499999999999842
 40
0.7499999999999842
 40
0.7812499999999836
 40
0.7812499999999836
 40
0.8124999999999829
 40
0.8124999999999829
 40
0.8749999999999831
 40
0.8749999999999831
 40
0.9062499999999873
 40
0.9062499999999873
 40
0.9374999999999916
 40
0.9374999999999916
 40
0.9687499999999958
 40
0.9687499999999958
 40
1.0
 40
1.0
 40
1.0
 40
1.0
 10
10.94054226136986
 20
33.88621495782827
 30
0.0
 10
10.94096453734417
 20
33.87965546007329
 30
0.0
 10
10.94183598691934
 20
33.87363837266186
 30
0.0
 10
10.94447950361333
 20
33.86267974420283
 30
0.0
 10
10.94627997807631
 20
33.85769095202632
 30
0.0
 10
10.9507345600219
 20
33.84918130245267
 30
0.0
 10
10.95337083578256
 20
33.8456510077167
 30
0.0
 10
10.95948699836658
 20
33.84007171841589
 30
0.0
 10
10.96299518476316
 20
33.83803775328544
 30
0.0
 10
10.97055288324002
 20
33.8357116328624
 30
0.0
 10
10.9746357677172
 20
33.83537560568082
 30
0.0
 10
10.98343669339371
 20
33.83642931519648
 30
0.0
 10
10.98801232765215
 20
33.83780560854994
 30
0.0
 10
10.9974341457575
 20
33.84215742678651
 30
0.0
 10
11.00234659451876
 20
33.8451848620653
 30
0.0
 10
11.01209016725233
 20
33.85262533833164
 30
0.0
 10
11.01693947097033
 20
33.85702901518047
 30
0.0
 10
11.0265872238599
 20
33.8671769155701
 30
0.0
 10
11.03133090633407
 20
33.87287717796212
 30
0.0
 10
11.04038795699068
 20
33.88513753726357
 30
0.0
 10
11.04477426015487
 20
33.89179373604464
 30
0.0
 10
11.05305198662148
 20
33.905843555719
 30
0.0
 10
11.05689081472473
 20
33.91313564447857
 30
0.0
 10
11.06398898206041
 20
33.92823327936519
 30
0.0
 10
11.06727294552807
 20
33.93611672690848
 30
0.0
 10
11.07303287127541
 20
33.95188644601848
 30
0.0
 10
11.07553030325796
 20
33.95980057107541
 30
0.0
 10
11.07975931605104
 20
33.9756876222709
 30
0.0
 10
11.08148951477036
 20
33.98370000392888
 30
0.0
 10
11.08402543504746
 20
33.99914761817779
 30
0.0
 10
11.08485632072808
 20
34.00666106495562
 30
0.0
 10
11.08561709298077
 20
34.02125033300942
 30
0.0
 10
11.08553339398138
 20
34.02829889710183
 30
0.0
 10
11.08444387773267
 20
34.04132142231323
 30
0.0
 10
11.08344510208183
 20
34.04737868227839
 30
0.0
 10
11.08048867387187
 20
34.05852342607032
 30
0.0
 10
11.07855249201803
 20
34.0634936503435
 30
0.0
 10
11.07386740799156
 20
34.0720035074752
 30
0.0
 10
11.07108320509919
 20
34.07560668953539
 30
0.0
 10
11.06472693705543
 20
34.08124772830649
 30
0.0
 10
11.06122433248319
 20
34.08324190326631
 30
0.0
 10
11.05358262464357
 20
34.08559777414631
 30
0.0
 10
11.04939373546837
 20
34.08594107827966
 30
0.0
 10
11.04072683612307
 20
34.08491053848564
 30
0.0
 10
11.03622170814982
 20
34.0835633647296
 30
0.0
 10
11.02686065007856
 20
34.07918350620152
 30
0.0
 10
11.02209036298242
 20
34.0761789412405
 30
0.0
 10
11.0125957692053
 20
34.06875739450067
 30
0.0
 10
11.0077852623228
 20
34.06426539980415
 30
0.0
 10
10.99840608683793
 20
34.05408543329
 30
0.0
 10
10.99385431580047
 20
34.04843480331149
 30
0.0
 10
10.98500931953253
 20
34.03605320078132
 30
0.0
 10
10.98071490080464
 20
34.02929996381423
 30
0.0
 10
10.96872387713606
 20
34.00826005880902
 30
0.0
 10
10.96162757674346
 20
33.99267701561239
 30
0.0
 10
10.95315080776317
 20
33.96905581438958
 30
0.0
 10
10.95064343448484
 20
33.96103729249565
 30
0.0
 10
10.94639293131589
 20
33.94507095180977
 30
0.0
 10
10.94467426639004
 20
33.93723593140176
 30
0.0
 10
10.94203499688595
 20
33.9218549687826
 30
0.0
 10
10.94111161539777
 20
33.91424421559208
 30
0.0
 10
10.94015836930726
 20
33.89969983559268
 30
0.0
 10
10.94011998539554
 20
33.89277445558326
 30
0.0
 10
10.94054226136986
 20
33.88621495782827
 30
0.0
  0
SPLINE
  5
81
330
1F
100
AcDbEntity
  8
0
  6
Continuous
 62
     7
370
    15
100
AcDbSpline
210
0.0
220
0.0
230
1.0
 70
    11
 71
     3
 72
    64
 73
    60
 74
     0
 42
0.000000001
 43
0.00000001
 40
0.0
 40
0.0
 40
0.0
 40
0.0
 40
0.0312499999999999
 40
0.0312499999999999
 40
0.0624999999999998
 40
0.0624999999999998
 40
0.0937499999999997
 40
0.0937499999999997
 40
0.1249999999999996
 40
0.1249999999999996
 40
0.1562499999999994
 40
0.1562499999999994
 40
0.1874999999999993
 40
0.1874999999999993
 40
0.2187499999999992
 40
0.2187499999999992
 40
0.2499999999999991
 40
0.2499999999999991
 40
0.281249999999999
 40
0.281249999999999
 40
0.3124999999999989
 40
0.3124999999999989
 40
0.3437499999999988
 40
0.3437499999999988
 40
0.3749999999999987
 40
0.3749999999999987
 40
0.4374999999999941
 40
0.4374999999999941
 40
0.4687499999999912
 40
0.4687499999999912
 40
0.4999999999999883
 40
0.4999999999999883
 40
0.5312499999999855
 40
0.5312499999999855
 40
0.5624999999999826
 40
0.5624999999999826
 40
0.5937499999999797
 40
0.5937499999999797
 40
0.6249999999999768
 40
0.6249999999999768
 40
0.6874999999999777
 40
0.6874999999999777
 40
0.7187499999999799
 40
0.7187499999999799
 40
0.7499999999999821
 40
0.7499999999999821
 40
0.7812499999999843
 40
0.7812499999999843
 40
0.8124999999999866
 40
0.8124999999999866
 40
0.8437499999999888
 40
0.8437499999999888
 40
0.874999999999991
 40
0.874999999999991
 40
0.9062499999999932
 40
0.9062499999999932
 40
0.9374999999999954
 40
0.9374999999999954
 40
1.0
 40
1.0
 40
1.0
 40
1.0
 10
20.46764261347437
 20
33.93344523115208
 30
0.0
 10
20.46616731676869
 20
33.94129260677476
 30
0.0
 10
20.46430530983
 20
33.94917390144006
 30
0.0
 10
20.45984468532014
 20
33.96500197239043
 30
0.0
 10
20.45722503205084
 20
33.97300390247658
 30
0.0
 10
20.45129521319222
 20
33.98882719632168
 30
0.0
 10
20.44803598809391
 20
33.99652723227797
 30
0.0
 10
20.44093252966914
 20
34.0115078250714
 30
0.0
 10
20.437042344743
 20
34.0188632872548
 30
0.0
 10
20.42886058135925
 20
34.03270145399311
 30
0.0
 10
20.42459142986507
 20
34.0391659904523
 30
0.0
 10
20.41568436173144
 20
34.0511706616302
 30
0.0
 10
20.41099361866219
 20
34.05675683488933
 30
0.0
 10
20.40160501056949
 20
34.06647953162137
 30
0.0
 10
20.39687869562253
 20
34.07067026031832
 30
0.0
 10
20.38735253390458
 20
34.07766063011675
 30
0.0
 10
20.38256500322721
 20
34.08042857674333
 30
0.0
 10
20.37337432495136
 20
34.08425260965165
 30
0.0
 10
20.36889899983055
 20
34.08535820489332
 30
0.0
 10
20.36027737160954
 20
34.08585670626766
 30
0.0
 10
20.35626364124956
 20
34.0852466907245
 30
0.0
 10
20.34880865960798
 20
34.08237479958019
 30
0.0
 10
20.3453389351367
 20
34.08006895967653
 30
0.0
 10
20.33926697817467
 20
34.07396848923943
 30
0.0
 10
20.3366324516144
 20
34.0701811778295
 30
0.0
 10
20.32993658465571
 20
34.05662414922783
 30
0.0
 10
20.32726654917641
 20
34.04495088818425
 30
0.0
 10
20.3260811876955
 20
34.02481331290389
 30
0.0
 10
20.32615521010873
 20
34.01776395343936
 30
0.0
 10
20.32720954316734
 20
34.00302129869971
 30
0.0
 10
20.32820728981093
 20
33.99526672937848
 30
0.0
 10
20.33104108417885
 20
33.97968591342114
 30
0.0
 10
20.33287540526102
 20
33.97180278244488
 30
0.0
 10
20.33738117121187
 20
33.95585153684375
 30
0.0
 10
20.34005431370201
 20
33.94781092934332
 30
0.0
 10
20.34603510757242
 20
33.93217189495233
 30
0.0
 10
20.34936352233806
 20
33.92449384396549
 30
0.0
 10
20.356721361602
 20
33.90943119871482
 30
0.0
 10
20.36069425454911
 20
33.90217489231419
 30
0.0
 10
20.3732203172133
 20
33.88168865279934
 30
0.0
 10
20.38265732122463
 20
33.86936527950731
 30
0.0
 10
20.39705668796166
 20
33.85488993323717
 30
0.0
 10
20.40198619473638
 20
33.85063377565342
 30
0.0
 10
20.4117470266462
 20
33.84364522663731
 30
0.0
 10
20.4165241327909
 20
33.84093469654935
 30
0.0
 10
20.42586561140235
 20
33.83708878330924
 30
0.0
 10
20.43046629833933
 20
33.83596673938234
 30
0.0
 10
20.43901208742498
 20
33.83546688002404
 30
0.0
 10
20.44300898945681
 20
33.83605475465675
 30
0.0
 10
20.45043871463863
 20
33.83894678143989
 30
0.0
 10
20.4537770421351
 20
33.84122505703014
 30
0.0
 10
20.45962959544218
 20
33.84728681567827
 30
0.0
 10
20.46218506170221
 20
33.85113505976841
 30
0.0
 10
20.46634901213757
 20
33.86009965391298
 30
0.0
 10
20.46797228022383
 20
33.86519887521477
 30
0.0
 10
20.47033645259403
 20
33.87659678368195
 30
0.0
 10
20.47106076427959
 20
33.88288053558763
 30
0.0
 10
20.47186241486675
 20
33.90274749916166
 30
0.0
 10
20.47059320688576
 20
33.91775047990672
 30
0.0
 10
20.46764261347437
 20
33.93344523115208
 30
0.0
  0
SPLINE
  5
82
330
1F
100
AcDbEntity
  8
0
  6
Continuous
 62
     7
370
    15
100
AcDbSpline
210
0.0
220
0.0
230
1.0
 70
     8
 71
     3
 72
    10
 73
     6
 74
     0
 42
0.000000001
 43
0.00000001
 40
0.0
 40
0.0
 40
0.0
 40
0.0
 40
0.4059972645020645
 40
0.8126561754648088
 40
0.9999999999999999
 40
0.9999999999999999
 40
0.9999999999999999
 40
0.9999999999999999
 10
10.96920206856392
 20
33.87518303639465
 30
0.0
 10
10.97156622941254
 20
33.86625700097242
 30
0.0
 10
10.97629840394029
 20
33.84839038352813
 30
0.0
 10
10.98914969938299
 20
33.83594241705739
 30
0.0
 10
10.99969675022824
 20
33.83697322994738
 30
0.0
 10
11.00302320770871
 20
33.83729834028384
 30
0.0
  0
SPLINE
  5
83
330
1F
100
AcDbEntity
  8
0
  6
Continuous
 62
     7
370
    15
100
AcDbSpline
210
0.0
220
0.0
230
1.0
 70
     8
 71
     3
 72
    14
 73
    10
 74
     0
 42
0.000000001
 43
0.00000001
 40
0.0
 40
0.0
 40
0.0
 40
0.0
 40
0.0558974963040047
 40
0.2077237939798209
 40
0.364378015609978
 40
0.5284486607830591
 40
0.7001250516559645
 40
0.8763408887119752
 40
1.0
 40
1.0
 40
1.0
 40
1.0
 10
11.05820563713137
 20
34.07964289733947
 30
0.0
 10
11.05550988023186
 20
34.07869692720033
 30
0.0
 10
11.04549202813044
 20
34.07518155496928
 30
0.0
 10
11.02671376995201
 20
34.05630993067183
 30
0.0
 10
11.00461539855135
 20
34.02536946072025
 30
0.0
 10
10.98554028812042
 20
33.9856796799978
 30
0.0
 10
10.97213659630338
 20
33.94226221354464
 30
0.0
 10
10.96651765949896
 20
33.9034476935824
 30
0.0
 10
10.96841830237081
 20
33.88343545997768
 30
0.0
 10
10.96920206843631
 20
33.87518303663883
 30
0.0
  0
SPLINE
  5
84
330
1F
100
AcDbEntity
  8
0
  6
Continuous
 62
     7
370
    15
100
AcDbSpline
210
0.0
220
0.0
230
1.0
 70
     8
 71
     3
 72
    12
 73
     8
 74
     0
 42
0.000000001
 43
0.00000001
 40
0.0
 40
0.0
 40
0.0
 40
0.0
 40
0.2223446549492653
 40
0.4447506344731638
 40
0.6643326827517697
 40
0.8745031609876766
 40
1.0
 40
1.0
 40
1.0
 40
1.0
 10
20.44128505371313
 20
33.92716921589226
 30
0.0
 10
20.43814546713879
 20
33.94183603683538
 30
0.0
 10
20.43186542806504
 20
33.97117372395741
 30
0.0
 10
20.41285314939142
 20
34.0151367011557
 30
0.0
 10
20.3895567769516
 20
34.05130075546711
 30
0.0
 10
20.36697670302278
 20
34.07492014604619
 30
0.0
 10
20.35409414771643
 20
34.07958688418095
 30
0.0
 10
20.34927771225706
 20
34.08133165006763
 30
0.0
  0
SPLINE
  5
85
330
1F
100
AcDbEntity
  8
0
  6
Continuous
 62
     7
370
    15
100
AcDbSpline
210
0.0
220
0.0
230
1.0
 70
     8
 71
     3
 72
    12
 73
     8
 74
     0
 42
0.000000001
 43
0.00000001
 40
0.0
 40
0.0
 40
0.0
 40
0.0
 40
0.1080257076283469
 40
0.3464518775070985
 40
0.5888513026089826
 40
0.8428903378929838
 40
1.0
 40
1.0
 40
1.0
 40
1.0
 10
20.40868687708837
 20
33.83729197148161
 30
0.0
 10
20.41179883156157
 20
33.83691880228293
 30
0.0
 10
20.42177925653284
 20
33.83572200225864
 30
0.0
 10
20.43387388962188
 20
33.84736053624481
 30
0.0
 10
20.44311835020401
 20
33.87029730900771
 30
0.0
 10
20.44496712446213
 20
33.89890504587218
 30
0.0
 10
20.44230306694256
 20
33.91935488167594
 30
0.0
 10
20.44128506742222
 20
33.92716924862798
 30
0.0
  0
LINE
  5
86
330
1F
100
AcDbEntity
  8
0
  6
Continuous
 62
     8
370
    15
100
AcDbLine
 10
7.331670862
 20
21.8860037405
 30
0.0
 11
24.0800276757
 21
21.8860037405
 31
0.0
  0
CIRCLE
  5
87
330
1F
100
AcDbEntity
  8
0
  6
Continuous
 62
     7
370
    15
100
AcDbCircle
 10
38.4265289207
 20
47.1908116749
 30
0.0
 40
8.382715933023555
  0
CIRCLE
  5
88
330
1F
100
AcDbEntity
  8
0
  6
Continuous
 62
     7
370
    15
100
AcDbCircle
 10
38.4265289207
 20
47.1908116749
 30
0.0
 40
7.632715933023555
  0
CIRCLE
  5
89
330
1F
100
AcDbEntity
  8
0
  6
Continuous
 62
     7
370
    15
100
AcDbCircle
 10
38.4265289207
 20
47.1908116749
 30
0.0
 40
6.249999999999993
  0
CIRCLE
  5
8A
330
1F
100
AcDbEntity
  8
0
  6
Continuous
 62
     7
370
    15
100
AcDbCircle
 10
38.4265289207
 20
47.1908116749
 30
0.0
 40
5.127587615166846
  0
SPLINE
  5
8B
330
1F
100
AcDbEntity
  8
0
  6
Continuous
 62
     7
370
    15
100
AcDbSpline
210
0.0
220
0.0
230
1.0
 70
    11
 71
     3
 72
    68
 73
    64
 74
     0
 42
0.000000001
 43
0.00000001
 40
0.0
 40
0.0
 40
0.0
 40
0.0
 40
0.0312499999999993
 40
0.0312499999999993
 40
0.0624999999999986
 40
0.0624999999999986
 40
0.0937499999999979
 40
0.0937499999999979
 40
0.1249999999999971
 40
0.1249999999999971
 40
0.1562499999999964
 40
0.1562499999999964
 40
0.1874999999999957
 40
0.1874999999999957
 40
0.2187499999999949
 40
0.2187499999999949
 40
0.2499999999999942
 40
0.2499999999999942
 40
0.2812499999999934
 40
0.2812499999999934
 40
0.3124999999999927
 40
0.3124999999999927
 40
0.343749999999992
 40
0.343749999999992
 40
0.3749999999999913
 40
0.3749999999999913
 40
0.4062499999999906
 40
0.4062499999999906
 40
0.4374999999999899
 40
0.4374999999999899
 40
0.4687499999999892
 40
0.4687499999999892
 40
0.4999999999999885
 40
0.4999999999999885
 40
0.5312499999999877
 40
0.5312499999999877
 40
0.5624999999999868
 40
0.5624999999999868
 40
0.593749999999986
 40
0.593749999999986
 40
0.6249999999999851
 40
0.6249999999999851
 40
0.6562499999999843
 40
0.6562499999999843
 40
0.6874999999999835
 40
0.6874999999999835
 40
0.7187499999999827
 40
0.7187499999999827
 40
0.7499999999999819
 40
0.7499999999999819
 40
0.781249999999981
 40
0.781249999999981
 40
0.8124999999999802
 40
0.8124999999999802
 40
0.8749999999999859
 40
0.8749999999999859
 40
0.9062499999999893
 40
0.9062499999999893
 40
0.9374999999999929
 40
0.9374999999999929
 40
0.9687499999999963
 40
0.9687499999999963
 40
1.0
 40
1.0
 40
1.0
 40
1.0
 10
33.00732847447814
 20
47.10657163910902
 30
0.0
 10
33.00534247247529
 20
47.11267153098386
 30
0.0
 10
33.00358364547913
 20
47.11925230319221
 30
0.0
 10
33.00052715579039
 20
47.13337184678583
 30
0.0
 10
32.99921903829843
 20
47.14100975659389
 30
0.0
 10
32.99719608847401
 20
47.15673928366466
 30
0.0
 10
32.99647082864901
 20
47.16483254309008
 30
0.0
 10
32.99561059129987
 20
47.18148686357683
 30
0.0
 10
32.99548637737641
 20
47.1900234853897
 30
0.0
 10
32.9958538962834
 20
47.20674201958595
 30
0.0
 10
32.99634426673041
 20
47.21508479865454
 30
0.0
 10
32.99792497429491
 20
47.23136580044923
 30
0.0
 10
32.99899462719782
 20
47.23914002782269
 30
0.0
 10
33.00166004668397
 20
47.25399079160816
 30
0.0
 10
33.00327281411261
 20
47.26110230801974
 30
0.0
 10
33.00687796990358
 20
47.27404559379547
 30
0.0
 10
33.00888081145503
 20
47.27995728341278
 30
0.0
 10
33.01327528321321
 20
47.2906693684888
 30
0.0
 10
33.01561873513212
 20
47.295344454043
 30
0.0
 10
33.02051637957636
 20
47.30330299978316
 30
0.0
 10
33.02310356345506
 20
47.30662875624203
 30
0.0
 10
33.02838882922556
 20
47.3117714413261
 30
0.0
 10
33.03106585568639
 20
47.31358439996582
 30
0.0
 10
33.03648309763623
 20
47.31573508592661
 30
0.0
 10
33.03924905607593
 20
47.31606061604346
 30
0.0
 10
33.04465454584862
 20
47.31517532587223
 30
0.0
 10
33.04730799150722
 20
47.31398461466016
 30
0.0
 10
33.05251744110247
 20
47.31008932499505
 30
0.0
 10
33.0550857006859
 20
47.30735050590459
 30
0.0
 10
33.05991447946649
 20
47.30052331201063
 30
0.0
 10
33.06220198839343
 20
47.29642435256825
 30
0.0
 10
33.06652002908633
 20
47.28679677499753
 30
0.0
 10
33.06853945166176
 20
47.28126441026161
 30
0.0
 10
33.07213526023984
 20
47.26921374495026
 30
0.0
 10
33.07373754469839
 20
47.26264395436043
 30
0.0
 10
33.07653328831048
 20
47.24834069364992
 30
0.0
 10
33.07768825117529
 20
47.24078702798873
 30
0.0
 10
33.07949105409161
 20
47.22512348501181
 30
0.0
 10
33.08014969543911
 20
47.21688235141428
 30
0.0
 10
33.0809156371671
 20
47.20019100870263
 30
0.0
 10
33.08102623009098
 20
47.19182260606065
 30
0.0
 10
33.08070845756053
 20
47.17504075292573
 30
0.0
 10
33.08027013350954
 20
47.16659466822102
 30
0.0
 10
33.07888426487339
 20
47.15044318112738
 30
0.0
 10
33.0779366553144
 20
47.14262997774818
 30
0.0
 10
33.07552040299822
 20
47.12757555995287
 30
0.0
 10
33.07409160169305
 20
47.12057958644557
 30
0.0
 10
33.07081119928456
 20
47.10758533601998
 30
0.0
 10
33.06893643426227
 20
47.10153773695436
 30
0.0
 10
33.06488733809694
 20
47.09086491989309
 30
0.0
 10
33.06270990774898
 20
47.086198450915
 30
0.0
 10
33.05804750353339
 20
47.07817726011658
 30
0.0
 10
33.05557018392553
 20
47.07485747326562
 30
0.0
 10
33.0479640127103
 20
47.06722748788531
 30
0.0
 10
33.04248306479587
 20
47.06509546654767
 30
0.0
 10
33.03435126168134
 20
47.06649523256183
 30
0.0
 10
33.03161692604787
 20
47.06772287310329
 30
0.0
 10
33.02623542072028
 20
47.07169139087725
 30
0.0
 10
33.0236248321516
 20
47.07439288179223
 30
0.0
 10
33.01856757204543
 20
47.08121497568428
 30
0.0
 10
33.01609935111985
 20
47.08538347371664
 30
0.0
 10
33.01147136480706
 20
47.09502561624917
 30
0.0
 10
33.00931447648098
 20
47.10047174723418
 30
0.0
 10
33.00732847447814
 20
47.10657163910902
 30
0.0
  0
SPLINE
  5
8C
330
1F
100
AcDbEntity
  8
0
  6
Continuous
 62
     7
370
    15
100
AcDbSpline
210
0.0
220
0.0
230
1.0
 70
    11
 71
     3
 72
    68
 73
    64
 74
     0
 42
0.000000001
 43
0.00000001
 40
0.0
 40
0.0
 40
0.0
 40
0.0
 40
0.0312499999999992
 40
0.0312499999999992
 40
0.0624999999999984
 40
0.0624999999999984
 40
0.0937499999999977
 40
0.0937499999999977
 40
0.1249999999999969
 40
0.1249999999999969
 40
0.1562499999999961
 40
0.1562499999999961
 40
0.1874999999999953
 40
0.1874999999999953
 40
0.2187499999999946
 40
0.2187499999999946
 40
0.2499999999999938
 40
0.2499999999999938
 40
0.281249999999993
 40
0.281249999999993
 40
0.3124999999999922
 40
0.3124999999999922
 40
0.3437499999999915
 40
0.3437499999999915
 40
0.3749999999999907
 40
0.3749999999999907
 40
0.4062499999999899
 40
0.4062499999999899
 40
0.4374999999999891
 40
0.4374999999999891
 40
0.4687499999999883
 40
0.4687499999999883
 40
0.4999999999999876
 40
0.4999999999999876
 40
0.5312499999999868
 40
0.5312499999999868
 40
0.562499999999986
 40
0.562499999999986
 40
0.5937499999999852
 40
0.5937499999999852
 40
0.6249999999999845
 40
0.6249999999999845
 40
0.6562499999999837
 40
0.6562499999999837
 40
0.6874999999999829
 40
0.6874999999999829
 40
0.7187499999999821
 40
0.7187499999999821
 40
0.7499999999999813
 40
0.7499999999999813
 40
0.7812499999999806
 40
0.7812499999999806
 40
0.8124999999999798
 40
0.8124999999999798
 40
0.8749999999999863
 40
0.8749999999999863
 40
0.9062499999999898
 40
0.9062499999999898
 40
0.9374999999999932
 40
0.9374999999999932
 40
0.9687499999999967
 40
0.9687499999999967
 40
1.0
 40
1.0
 40
1.0
 40
1.0
 10
41.05591834827113
 20
51.92745887513393
 30
0.0
 10
41.06185208219448
 20
51.92649655484937
 30
0.0
 10
41.06813705885101
 20
51.92509012727569
 30
0.0
 10
41.08140247043898
 20
51.92138496951975
 30
0.0
 10
41.08847195164864
 20
51.91905030983688
 30
0.0
 10
41.10285061121885
 20
51.91358780556644
 30
0.0
 10
41.11015407313345
 20
51.91047270158169
 30
0.0
 10
41.1249921002355
 20
51.90345115400994
 30
0.0
 10
41.13252761377262
 20
51.8995328099873
 30
0.0
 10
41.14709412716965
 20
51.89126425297591
 30
0.0
 10
41.15424863419083
 20
51.88685271782845
 30
0.0
 10
41.16811236372725
 20
51.87757068999705
 30
0.0
 10
41.17463002827786
 20
51.87283166392146
 30
0.0
 10
41.18688121551343
 20
51.8631716462621
 30
0.0
 10
41.19265318584597
 20
51.85820675660944
 30
0.0
 10
41.20295130908535
 20
51.84850534170831
 30
0.0
 10
41.207537563134
 20
51.84372776658349
 30
0.0
 10
41.21560322425654
 20
51.83432438876704
 30
0.0
 10
41.21900095147823
 20
51.8297870839353
 30
0.0
 10
41.22448324284158
 20
51.82119258867472
 30
0.0
 10
41.22660242260464
 20
51.81707521974613
 30
0.0
 10
41.2294835138197
 20
51.80944279147901
 30
0.0
 10
41.23024543432449
 20
51.8059566116855
 30
0.0
 10
41.23045913560124
 20
51.7996266958326
 30
0.0
 10
41.22989242186102
 20
51.79676379432978
 30
0.0
 10
41.22746062101146
 20
51.79189141057265
 30
0.0
 10
41.22560864073485
 20
51.78985885901409
 30
0.0
 10
41.22062172021995
 20
51.78660661342803
 30
0.0
 10
41.21745491887449
 20
51.78539168670863
 30
0.0
 10
41.21004754534383
 20
51.78389938887605
 30
0.0
 10
41.20578899261796
 20
51.78360092646491
 30
0.0
 10
41.19611309080408
 20
51.78393028260167
 30
0.0
 10
41.19069661693075
 20
51.78457046484285
 30
0.0
 10
41.17913868826547
 20
51.78675039259035
 30
0.0
 10
41.17294552723683
 20
51.78828920389246
 30
0.0
 10
41.15966979945009
 20
51.79231735724934
 30
0.0
 10
41.15273877568594
 20
51.79476495648146
 30
0.0
 10
41.13854852795219
 20
51.80042002828923
 30
0.0
 10
41.13117377328085
 20
51.80367664818204
 30
0.0
 10
41.11634274406248
 20
51.81085951152843
 30
0.0
 10
41.10898509106113
 20
51.81473103597096
 30
0.0
 10
41.09438311690134
 20
51.82302643547017
 30
0.0
 10
41.08709311551592
 20
51.82748741908143
 30
0.0
 10
41.07330172726447
 20
51.83656406758274
 30
0.0
 10
41.06671641059518
 20
51.84122319242043
 30
0.0
 10
41.05418082221635
 20
51.85079219226145
 30
0.0
 10
41.04841610051194
 20
51.85556239185385
 30
0.0
 10
41.03793000259653
 20
51.86500746107448
 30
0.0
 10
41.03315169907872
 20
51.86974423766739
 30
0.0
 10
41.02492963723146
 20
51.87884014279025
 30
0.0
 10
41.0214608978288
 20
51.8832109844635
 30
0.0
 10
41.01577933971608
 20
51.89161505752384
 30
0.0
 10
41.01359064859251
 20
51.89563198200771
 30
0.0
 10
41.00914804556693
 20
51.90671492787743
 30
0.0
 10
41.0089299716488
 20
51.91306829539552
 30
0.0
 10
41.01262488433539
 20
51.92030044385712
 30
0.0
 10
41.01453400544441
 20
51.92236812201554
 30
0.0
 10
41.01964985940723
 20
51.92569486865134
 30
0.0
 10
41.02281234055378
 20
51.92693841163975
 30
0.0
 10
41.03032714496342
 20
51.92859402890445
 30
0.0
 10
41.03472742203768
 20
51.9290041223617
 30
0.0
 10
41.04456715156249
 20
51.92891261931374
 30
0.0
 10
41.0499846143478
 20
51.92842119541849
 30
0.0
 10
41.05591834827113
 20
51.92745887513393
 30
0.0
  0
SPLINE
  5
8D
330
1F
100
AcDbEntity
  8
0
  6
Continuous
 62
     7
370
    15
100
AcDbSpline
210
0.0
220
0.0
230
1.0
 70
    11
 71
     3
 72
    62
 73
    58
 74
     0
 42
0.000000001
 43
0.00000001
 40
0.0
 40
0.0
 40
0.0
 40
0.0
 40
0.0312499999999976
 40
0.0312499999999976
 40
0.0624999999999953
 40
0.0624999999999953
 40
0.0937499999999929
 40
0.0937499999999929
 40
0.1249999999999906
 40
0.1249999999999906
 40
0.1562499999999882
 40
0.1562499999999882
 40
0.1874999999999858
 40
0.1874999999999858
 40
0.2187499999999835
 40
0.2187499999999835
 40
0.2499999999999811
 40
0.2499999999999811
 40
0.3124999999999769
 40
0.3124999999999769
 40
0.3437499999999761
 40
0.3437499999999761
 40
0.3749999999999754
 40
0.3749999999999754
 40
0.4374999999999772
 40
0.4374999999999772
 40
0.4687499999999751
 40
0.4687499999999751
 40
0.499999999999973
 40
0.499999999999973
 40
0.5312499999999709
 40
0.5312499999999709
 40
0.5624999999999687
 40
0.5624999999999687
 40
0.5937499999999666
 40
0.5937499999999666
 40
0.6249999999999645
 40
0.6249999999999645
 40
0.6874999999999661
 40
0.6874999999999661
 40
0.7187499999999689
 40
0.7187499999999689
 40
0.7499999999999717
 40
0.7499999999999717
 40
0.7812499999999745
 40
0.7812499999999745
 40
0.8124999999999771
 40
0.8124999999999771
 40
0.8437499999999799
 40
0.8437499999999799
 40
0.8749999999999827
 40
0.8749999999999827
 40
0.9062499999999855
 40
0.9062499999999855
 40
0.9374999999999881
 40
0.9374999999999881
 40
1.0
 40
1.0
 40
1.0
 40
1.0
 10
41.02147393018188
 20
42.45537588998472
 30
0.0
 10
41.01826052588719
 20
42.45662869966219
 30
0.0
 10
41.0157178835923
 20
42.45827930071915
 30
0.0
 10
41.01191033333792
 20
42.46233510207259
 30
0.0
 10
41.01064219248625
 20
42.46475980749063
 30
0.0
 10
41.0094786411845
 20
42.47032288769535
 30
0.0
 10
41.00958249891803
 20
42.47341277740077
 30
0.0
 10
41.01114016694514
 20
42.48020313941183
 30
0.0
 10
41.01261988828637
 20
42.48394758031298
 30
0.0
 10
41.01692172935759
 20
42.49187574722853
 30
0.0
 10
41.01971740648837
 20
42.49603645285465
 30
0.0
 10
41.02661026018954
 20
42.50476300689308
 30
0.0
 10
41.03076653271327
 20
42.50938214279143
 30
0.0
 10
41.04011556792491
 20
42.51868089429208
 30
0.0
 10
41.04531638788911
 20
42.52338490898703
 30
0.0
 10
41.05680211836077
 20
42.53291356536138
 30
0.0
 10
41.0630999786646
 20
42.53773636069153
 30
0.0
 10
41.0827600356789
 20
42.55169841520497
 30
0.0
 10
41.09744960120994
 20
42.56071873986338
 30
0.0
 10
41.11954022431237
 20
42.57238104384
 30
0.0
 10
41.1270606387951
 20
42.57603685804942
 30
0.0
 10
41.14166616819877
 20
42.58251817957751
 30
0.0
 10
41.1487853844456
 20
42.58536928854508
 30
0.0
 10
41.16960256401353
 20
42.59275471051397
 30
0.0
 10
41.18228543816225
 20
42.59593379647131
 30
0.0
 10
41.19843164305889
 20
42.59787865505862
 30
0.0
 10
41.20326003678915
 20
42.59805354209018
 30
0.0
 10
41.21186288430705
 20
42.59749230502387
 30
0.0
 10
41.21565409757447
 20
42.59674013616962
 30
0.0
 10
41.22190873140084
 20
42.59437416408824
 30
0.0
 10
41.2244131189057
 20
42.59276488327742
 30
0.0
 10
41.22818149884269
 20
42.58869425323521
 30
0.0
 10
41.22942439311213
 20
42.58622885291243
 30
0.0
 10
41.23056426896858
 20
42.58063301390532
 30
0.0
 10
41.23048311273232
 20
42.57748399429865
 30
0.0
 10
41.22896681580536
 20
42.57045982419245
 30
0.0
 10
41.22753415383527
 20
42.56663689380431
 30
0.0
 10
41.22132614815263
 20
42.55450260388184
 30
0.0
 10
41.21445228893069
 20
42.54525616184395
 30
0.0
 10
41.20079557222125
 20
42.53098557776902
 30
0.0
 10
41.19561226234268
 20
42.52607792456845
 30
0.0
 10
41.1842542197134
 20
42.51628764286679
 30
0.0
 10
41.17816446456163
 20
42.51146894056869
 30
0.0
 10
41.16515542176294
 20
42.50199080678715
 30
0.0
 10
41.15815540845862
 20
42.49728715681374
 30
0.0
 10
41.14392655599761
 20
42.48848052260129
 30
0.0
 10
41.13664482887729
 20
42.48433124382466
 30
0.0
 10
41.12173920352362
 20
42.47655222370442
 30
0.0
 10
41.11425803787103
 20
42.47300267304849
 30
0.0
 10
41.09960757275919
 20
42.46672334619379
 30
0.0
 10
41.09230126696472
 20
42.46393881315311
 30
0.0
 10
41.07833740527934
 20
42.45929681936843
 30
0.0
 10
41.07168960915211
 20
42.4574326236685
 30
0.0
 10
41.05904333063228
 20
42.45457918997582
 30
0.0
 10
41.05307011059197
 20
42.45360512275987
 30
0.0
 10
41.03683672344363
 20
42.45207654315096
 30
0.0
 10
41.02790073877128
 20
42.45287027062979
 30
0.0
 10
41.02147393018188
 20
42.45537588998472
 30
0.0
  0
SPLINE
  5
8E
330
1F
100
AcDbEntity
  8
0
  6
Continuous
 62
     7
370
    15
100
AcDbSpline
210
0.0
220
0.0
230
1.0
 70
     8
 71
     3
 72
    15
 73
    11
 74
     0
 42
0.000000001
 43
0.00000001
 40
0.0
 40
0.0
 40
0.0
 40
0.0
 40
0.0530244012960642
 40
0.2054792844837875
 40
0.3509826478148591
 40
0.4892391149685695
 40
0.6229594947430026
 40
0.7561061676060118
 40
0.8924874154334904
 40
1.0
 40
1.0
 40
1.0
 40
1.0
 10
41.22748061686079
 20
51.81301682146889
 30
0.0
 10
41.22545187486092
 20
51.81229210914501
 30
0.0
 10
41.21759012735701
 20
51.8094837159123
 30
0.0
 10
41.19242985275805
 20
51.81404427393219
 30
0.0
 10
41.15667571811719
 20
51.82607227263107
 30
0.0
 10
41.11896407904182
 20
51.84471623626386
 30
0.0
 10
41.08420165635196
 20
51.86672197189547
 30
0.0
 10
41.05551973021992
 20
51.88993846838274
 30
0.0
 10
41.0354857993672
 20
51.91116618877322
 30
0.0
 10
41.03086532151579
 20
51.92213256882629
 30
0.0
 10
41.02882853562883
 20
51.92696673724814
 30
0.0
  0
SPLINE
  5
8F
330
1F
100
AcDbEntity
  8
0
  6
Continuous
 62
     7
370
    15
100
AcDbSpline
210
0.0
220
0.0
230
1.0
 70
     8
 71
     3
 72
    15
 73
    11
 74
     0
 42
0.000000001
 43
0.00000001
 40
0.0
 40
0.0
 40
0.0
 40
0.0
 40
0.0635920388529758
 40
0.2136115431250828
 40
0.3568245907370686
 40
0.4928929405610198
 40
0.6244585840863406
 40
0.7554141693395994
 40
0.8895130055689447
 40
1.0
 40
1.0
 40
1.0
 40
1.0
 10
41.02854963389124
 20
42.45234769769633
 30
0.0
 10
41.0289690718897
 20
42.45490995526986
 30
0.0
 10
41.03037800294007
 20
42.46351681556305
 30
0.0
 10
41.04706726765878
 20
42.48354053923334
 30
0.0
 10
41.07535228457708
 20
42.50852841735535
 30
0.0
 10
41.11029283123598
 20
42.53189546360615
 30
0.0
 10
41.14673547416155
 20
42.55105377397439
 30
0.0
 10
41.18123215286492
 20
42.56436828192179
 30
0.0
 10
41.21000972856056
 20
42.57122317490352
 30
0.0
 10
41.22209195922763
 20
42.56974591662387
 30
0.0
 10
41.2275498770016
 20
42.56907859330888
 30
0.0
  0
SPLINE
  5
90
330
1F
100
AcDbEntity
  8
0
  6
Continuous
 62
     7
370
    15
100
AcDbSpline
210
0.0
220
0.0
230
1.0
 70
     8
 71
     3
 72
    15
 73
    11
 74
     0
 42
0.000000001
 43
0.00000001
 40
0.0
 40
0.0
 40
0.0
 40
0.0
 40
0.1255110436784964
 40
0.2749924708871642
 40
0.4169172399952979
 40
0.5526030900890028
 40
0.6855691968675629
 40
0.8198405744728946
 40
0.958830516464521
 40
1.0
 40
1.0
 40
1.0
 40
1.0
 10
33.02315467974456
 20
47.3059768410459
 30
0.0
 10
33.02685153846578
 20
47.30104115873088
 30
0.0
 10
33.03495129036391
 20
47.29022716630806
 30
0.0
 10
33.04382694489334
 20
47.25794756378225
 30
0.0
 10
33.04905928444732
 20
47.21790134413586
 30
0.0
 10
33.04963991091684
 20
47.17589293110112
 30
0.0
 10
33.04602036881779
 20
47.13630110702866
 30
0.0
 10
33.03845450338662
 20
47.10339226412523
 30
0.0
 10
33.03059220533457
 20
47.0825538923675
 30
0.0
 10
33.02503252629803
 20
47.07770559512387
 30
0.0
 10
33.02376204536767
 20
47.07659767699545
 30
0.0
  0
CIRCLE
  5
91
330
1F
100
AcDbEntity
  8
0
  6
Continuous
 62
     7
370
    15
100
AcDbCircle
 10
38.4265289207
 20
9.5243028832
 30
0.0
 40
8.382715933023555
  0
CIRCLE
  5
92
330
1F
100
AcDbEntity
  8
0
  6
Continuous
 62
     7
370
    15
100
AcDbCircle
 10
38.4265289207
 20
9.5243028832
 30
0.0
 40
5.15941224593859
  0
CIRCLE
  5
93
330
1F
100
AcDbEntity
  8
0
  6
Continuous
 62
     7
370
    15
100
AcDbCircle
 10
38.4265289207
 20
9.5243028832
 30
0.0
 40
8.374178406846996
  0
SPLINE
  5
94
330
1F
100
AcDbEntity
  8
0
  6
Continuous
 62
     7
370
    15
100
AcDbSpline
210
0.0
220
0.0
230
1.0
 70
    11
 71
     3
 72
    68
 73
    64
 74
     0
 42
0.000000001
 43
0.00000001
 40
0.0
 40
0.0
 40
0.0
 40
0.0
 40
0.03125
 40
0.03125
 40
0.0625
 40
0.0625
 40
0.09375
 40
0.09375
 40
0.125
 40
0.125
 40
0.15625
 40
0.15625
 40
0.1875
 40
0.1875
 40
0.21875
 40
0.21875
 40
0.25
 40
0.25
 40
0.28125
 40
0.28125
 40
0.3124999999999999
 40
0.3124999999999999
 40
0.3437499999999999
 40
0.3437499999999999
 40
0.3749999999999999
 40
0.3749999999999999
 40
0.4062499999999999
 40
0.4062499999999999
 40
0.4374999999999999
 40
0.4374999999999999
 40
0.4687499999999999
 40
0.4687499999999999
 40
0.4999999999999999
 40
0.4999999999999999
 40
0.5312499999999999
 40
0.5312499999999999
 40
0.5624999999999999
 40
0.5624999999999999
 40
0.5937499999999999
 40
0.5937499999999999
 40
0.6249999999999999
 40
0.6249999999999999
 40
0.6562499999999999
 40
0.6562499999999999
 40
0.6874999999999999
 40
0.6874999999999999
 40
0.7187499999999999
 40
0.7187499999999999
 40
0.7499999999999999
 40
0.7499999999999999
 40
0.7812499999999999
 40
0.7812499999999999
 40
0.8124999999999999
 40
0.8124999999999999
 40
0.8749999999999999
 40
0.8749999999999999
 40
0.9062499999999999
 40
0.9062499999999999
 40
0.9374999999999999
 40
0.9374999999999999
 40
0.9687499999999999
 40
0.9687499999999999
 40
1.0
 40
1.0
 40
1.0
 40
1.0
 10
32.97630751219836
 20
9.610549728671614
 30
0.0
 10
32.97428006264632
 20
9.604581148435251
 30
0.0
 10
32.9724746635703
 20
9.598118506478583
 30
0.0
 10
32.96931483713027
 20
9.584208891844476
 30
0.0
 10
32.96794910769475
 20
9.576663765573302
 30
0.0
 10
32.96580374788999
 20
9.56107698403631
 30
0.0
 10
32.96501423882257
 20
9.55303730999589
 30
0.0
 10
32.96401977119863
 20
9.53645359378418
 30
0.0
 10
32.96382549044657
 20
9.527925046122917
 30
0.0
 10
32.96405578752911
 20
9.51118609253894
 30
0.0
 10
32.96447688485032
 20
9.502819916065096
 30
0.0
 10
32.96592524894572
 20
9.486425528604832
 30
0.0
 10
32.96693224310455
 20
9.478579041214193
 30
0.0
 10
32.96947892061234
 20
9.463553553395798
 30
0.0
 10
32.97103625703178
 20
9.456333811587102
 30
0.0
 10
32.97454305193755
 20
9.443151974106815
 30
0.0
 10
32.9765016554761
 20
9.437111258804919
 30
0.0
 10
32.98081694856943
 20
9.426120225405812
 30
0.0
 10
32.98312890190498
 20
9.421293079257975
 30
0.0
 10
32.98797188525806
 20
9.413026533473957
 30
0.0
 10
32.99053651806818
 20
9.409539984472977
 30
0.0
 10
32.99578936383322
 20
9.404068036770818
 30
0.0
 10
32.99845556951943
 20
9.402089121997657
 30
0.0
 10
33.00386125596396
 20
9.399601671477797
 30
0.0
 10
33.0066264713567
 20
9.399103736945309
 30
0.0
 10
33.01204073295002
 20
9.399648957050251
 30
0.0
 10
33.01470364285026
 20
9.400671217942925
 30
0.0
 10
33.01994202729993
 20
9.404231327792914
 30
0.0
 10
33.02252956768556
 20
9.406802116974655
 30
0.0
 10
33.02740620655999
 20
9.41330769763819
 30
0.0
 10
33.02972239722031
 20
9.4172515687533
 30
0.0
 10
33.03410754725622
 20
9.426580300021746
 30
0.0
 10
33.03616532674702
 20
9.431969216797896
 30
0.0
 10
33.03984531967383
 20
9.443759655298809
 30
0.0
 10
33.0414936458569
 20
9.450210645153527
 30
0.0
 10
33.04438996198049
 20
9.464300371352257
 30
0.0
 10
33.04559900337254
 20
9.471766973326398
 30
0.0
 10
33.04751355234756
 20
9.48728727519663
 30
0.0
 10
33.04823113198614
 20
9.49547081087103
 30
0.0
 10
33.0491177212259
 20
9.512101758264588
 30
0.0
 10
33.04928876265633
 20
9.520458886539712
 30
0.0
 10
33.0490927250685
 20
9.537255669058798
 30
0.0
 10
33.04871572681132
 20
9.545735350809668
 30
0.0
 10
33.04744695629324
 20
9.56199020916285
 30
0.0
 10
33.04655704402358
 20
9.569865854448912
 30
0.0
 10
33.04424941646178
 20
9.585103204620077
 30
0.0
 10
33.04287086703671
 20
9.592205653456922
 30
0.0
 10
33.03968526232502
 20
9.60543433181835
 30
0.0
 10
33.03785494070889
 20
9.611614163393178
 30
0.0
 10
33.0338835871686
 20
9.622571136834273
 30
0.0
 10
33.03174089996455
 20
9.627386429485382
 30
0.0
 10
33.02714019600916
 20
9.635720150241308
 30
0.0
 10
33.02468833567975
 20
9.639204882873518
 30
0.0
 10
33.01714499162582
 20
9.647330816168035
 30
0.0
 10
33.01168803299459
 20
9.649809303811805
 30
0.0
 10
33.00356164011699
 20
9.648917736359648
 30
0.0
 10
33.00082406431689
 20
9.647859927416366
 30
0.0
 10
32.99542641680458
 20
9.644226524390858
 30
0.0
 10
32.99280247509062
 20
9.641687709139603
 30
0.0
 10
32.98770761403235
 20
9.635182594413923
 30
0.0
 10
32.98521493385418
 20
9.63116986770638
 30
0.0
 10
32.98052729543394
 20
9.621824523586197
 30
0.0
 10
32.9783349617504
 20
9.616518308907976
 30
0.0
 10
32.97630751219836
 20
9.610549728671614
 30
0.0
  0
SPLINE
  5
95
330
1F
100
AcDbEntity
  8
0
  6
Continuous
 62
     7
370
    15
100
AcDbSpline
210
0.0
220
0.0
230
1.0
 70
    11
 71
     3
 72
    68
 73
    64
 74
     0
 42
0.000000001
 43
0.00000001
 40
0.0
 40
0.0
 40
0.0
 40
0.0
 40
0.0312499999999993
 40
0.0312499999999993
 40
0.0624999999999987
 40
0.0624999999999987
 40
0.093749999999998
 40
0.093749999999998
 40
0.1249999999999974
 40
0.1249999999999974
 40
0.1562499999999967
 40
0.1562499999999967
 40
0.1874999999999961
 40
0.1874999999999961
 40
0.2187499999999954
 40
0.2187499999999954
 40
0.2499999999999947
 40
0.2499999999999947
 40
0.2812499999999941
 40
0.2812499999999941
 40
0.3124999999999934
 40
0.3124999999999934
 40
0.3437499999999927
 40
0.3437499999999927
 40
0.3749999999999921
 40
0.3749999999999921
 40
0.4062499999999915
 40
0.4062499999999915
 40
0.4374999999999908
 40
0.4374999999999908
 40
0.4687499999999901
 40
0.4687499999999901
 40
0.4999999999999895
 40
0.4999999999999895
 40
0.5312499999999888
 40
0.5312499999999888
 40
0.5624999999999881
 40
0.5624999999999881
 40
0.5937499999999875
 40
0.5937499999999875
 40
0.6249999999999868
 40
0.6249999999999868
 40
0.6562499999999861
 40
0.6562499999999861
 40
0.6874999999999855
 40
0.6874999999999855
 40
0.7187499999999848
 40
0.7187499999999848
 40
0.7499999999999842
 40
0.7499999999999842
 40
0.7812499999999836
 40
0.7812499999999836
 40
0.8124999999999829
 40
0.8124999999999829
 40
0.8749999999999831
 40
0.8749999999999831
 40
0.9062499999999873
 40
0.9062499999999873
 40
0.9374999999999916
 40
0.9374999999999916
 40
0.9687499999999958
 40
0.9687499999999958
 40
1.0
 40
1.0
 40
1.0
 40
1.0
 10
41.0618334595122
 20
4.758995875720708
 30
0.0
 10
41.06720523752531
 20
4.759418151695021
 30
0.0
 10
41.07299247800651
 20
4.760289601270192
 30
0.0
 10
41.08538883226903
 20
4.762933117964177
 30
0.0
 10
41.09208128083738
 20
4.764733592427159
 30
0.0
 10
41.10590858571702
 20
4.769188174372752
 30
0.0
 10
41.11301891055676
 20
4.771824450133411
 30
0.0
 10
41.12763885606336
 20
4.777940612717435
 30
0.0
 10
41.13518666096265
 20
4.781448799114013
 30
0.0
 10
41.14996023724932
 20
4.78900649759087
 30
0.0
 10
41.15727548282906
 20
4.793089382068055
 30
0.0
 10
41.17175629915756
 20
4.801890307744559
 30
0.0
 10
41.17868497898505
 20
4.806465942003001
 30
0.0
 10
41.19185934395052
 20
4.815887760108354
 30
0.0
 10
41.19818243642906
 20
4.820800208869613
 30
0.0
 10
41.20970390325837
 20
4.830543781603183
 30
0.0
 10
41.21494041430059
 20
4.835393085321186
 30
0.0
 10
41.2243913192137
 20
4.845040838210751
 30
0.0
 10
41.22854271578736
 20
4.849784520684925
 30
0.0
 10
41.23552750803511
 20
4.858841571341528
 30
0.0
 10
41.23841900502776
 20
4.863227874505724
 30
0.0
 10
41.24287575200509
 20
4.871505600972331
 30
0.0
 10
41.24442104509444
 20
4.875344429075578
 30
0.0
 10
41.24620738821519
 20
4.882442596411265
 30
0.0
 10
41.24643771597632
 20
4.88572655987892
 30
0.0
 10
41.24556097226765
 20
4.891486485626262
 30
0.0
 10
41.24447106140642
 20
4.89398391760881
 30
0.0
 10
41.24098831865375
 20
4.898212930401894
 30
0.0
 10
41.23856720309379
 20
4.899943129121208
 30
0.0
 10
41.23257402806384
 20
4.902479049398314
 30
0.0
 10
41.22899203390025
 20
4.903309935078926
 30
0.0
 10
41.22061247599649
 20
4.904070707331619
 30
0.0
 10
41.21581013027616
 20
4.903987008332227
 30
0.0
 10
41.20535943390974
 20
4.902897492083524
 30
0.0
 10
41.1996678658609
 20
4.901898716432685
 30
0.0
 10
41.18728736640283
 20
4.898942288222726
 30
0.0
 10
41.18071203988639
 20
4.897006106368877
 30
0.0
 10
41.16709690660419
 20
4.892321022342406
 30
0.0
 10
41.15995483626158
 20
4.889536819450046
 30
0.0
 10
41.14532004745947
 20
4.883180551406277
 30
0.0
 10
41.13797547564861
 20
4.879677946834036
 30
0.0
 10
41.12323041821273
 20
4.872036238994424
 30
0.0
 10
41.11575547212778
 20
4.867847349819219
 30
0.0
 10
41.10140379582764
 20
4.859180450473924
 30
0.0
 10
41.09446302557308
 20
4.854675322500667
 30
0.0
 10
41.08105963298776
 20
4.845314264429413
 30
0.0
 10
41.07472747269141
 20
4.840543977333272
 30
0.0
 10
41.06306724738641
 20
4.831049383556151
 30
0.0
 10
41.05763842897976
 20
4.826238876673651
 30
0.0
 10
41.04800290497801
 20
4.81685970118878
 30
0.0
 10
41.04380104969172
 20
4.812307930151321
 30
0.0
 10
41.03659183593852
 20
4.803462933883383
 30
0.0
 10
41.03359768492819
 20
4.799168515155491
 30
0.0
 10
41.02675403664232
 20
4.787177491486907
 30
0.0
 10
41.02488344031732
 20
4.780081191094309
 30
0.0
 10
41.02619728543011
 20
4.771604422114019
 30
0.0
 10
41.02731621990559
 20
4.76909704883569
 30
0.0
 10
41.03089433164197
 20
4.764846545666743
 30
0.0
 10
41.03331808905634
 20
4.763127880740887
 30
0.0
 10
41.0394066115277
 20
4.760488611236799
 30
0.0
 10
41.04311213802617
 20
4.759565229748622
 30
0.0
 10
41.05165027626796
 20
4.758611983658115
 30
0.0
 10
41.05646168149907
 20
4.758573599746394
 30
0.0
 10
41.06183345951219
 20
4.758995875720707
 30
0.0
  0
LWPOLYLINE
  5
96
330
1F
100
AcDbEntity
  8
0
  6
Continuous
 62
     7
370
    15
100
AcDbPolyline
 90
       21
 70
   128
 43
0.0
 10
41.0292168796
 20
14.2785795152
 10
41.0257247092
 20
14.2739416973
 10
41.0305685297
 20
14.2547805124
 10
41.0488526792
 20
14.2310316906
 10
41.077230022
 20
14.2062679998
 10
41.1111173912
 20
14.1835724694
 10
41.146497682
 20
14.1649872208
 10
41.1802892947
 20
14.1518427968
 10
41.2098170221
 20
14.1452464779
 10
41.2322835062
 20
14.1462467113
 10
41.2446730542
 20
14.1555725724
 10
41.2443369902
 20
14.1729726162
 10
41.2303344583
 20
14.1964504648
 10
41.2047349735
 20
14.2222614568
 10
41.1720972752
 20
14.2463714052
 10
41.1370242246
 20
14.2661524129
 10
41.1026729291
 20
14.2804274271
 10
41.0714081286
 20
14.2884515427
 10
41.0459345834
 20
14.2893357904
 10
41.0348767916
 20
14.2860962278
 10
41.0348767916
 20
14.2860962278
  0
CIRCLE
  5
97
330
1F
100
AcDbEntity
  8
0
  6
Continuous
 62
     7
370
    15
100
AcDbCircle
 10
38.4265289207
 20
9.5243028832
 30
0.0
 40
5.127587615166851
  0
SPLINE
  5
98
330
1F
100
AcDbEntity
  8
0
  6
Continuous
 62
     7
370
    15
100
AcDbSpline
210
0.0
220
0.0
230
1.0
 70
     8
 71
     3
 72
    15
 73
    11
 74
     0
 42
0.000000001
 43
0.00000001
 40
0.0
 40
0.0
 40
0.0
 40
0.0
 40
0.125418521278081
 40
0.2690347013941856
 40
0.4045901750085036
 40
0.532674074718169
 40
0.6575910497957028
 40
0.7845897050173967
 40
0.9176866207436782
 40
1.0
 40
1.0
 40
1.0
 40
1.0
 10
41.2275498770016
 20
14.14603596473982
 30
0.0
 10
41.22487605847205
 20
14.1522403503293
 30
0.0
 10
41.21914046246636
 20
14.16554934972898
 30
0.0
 10
41.19507521491694
 20
14.1906822485769
 30
0.0
 10
41.16271919792606
 20
14.21572953972958
 30
0.0
 10
41.12660174470182
 20
14.23690210788762
 30
0.0
 10
41.09085255703172
 20
14.25247004741545
 30
0.0
 10
41.05825689373105
 20
14.26153100782091
 30
0.0
 10
41.03479089159887
 20
14.26342669260122
 30
0.0
 10
41.025155784916
 20
14.26075832737155
 30
0.0
 10
41.02147398228616
 20
14.25973868177308
 30
0.0
  0
SPLINE
  5
99
330
1F
100
AcDbEntity
  8
0
  6
Continuous
 62
     7
370
    15
100
AcDbSpline
210
0.0
220
0.0
230
1.0
 70
     8
 71
     3
 72
    14
 73
    10
 74
     0
 42
0.000000001
 43
0.00000001
 40
0.0
 40
0.0
 40
0.0
 40
0.0
 40
0.165452067064816
 40
0.3311737683960595
 40
0.4909057218393267
 40
0.647272754706449
 40
0.8067281375694519
 40
0.9741002627440227
 40
1.0
 40
1.0
 40
1.0
 40
1.0
 10
41.05591834827113
 20
4.787655682914776
 30
0.0
 10
41.06641891711767
 20
4.789976763043388
 30
0.0
 10
41.08743716739946
 20
4.79462270592327
 30
0.0
 10
41.12472303216744
 20
4.810743335172012
 30
0.0
 10
41.16035938261319
 20
4.831403007752595
 30
0.0
 10
41.1914479130518
 20
4.854813436712011
 30
0.0
 10
41.21421584383408
 20
4.878138675158948
 30
0.0
 10
41.22662662553098
 20
4.89480692210287
 30
0.0
 10
41.22737969981181
 20
4.901236173404637
 30
0.0
 10
41.22748061686079
 20
4.902097736579815
 30
0.0
  0
SPLINE
  5
9A
330
1F
100
AcDbEntity
  8
0
  6
Continuous
 62
     7
370
    15
100
AcDbSpline
210
0.0
220
0.0
230
1.0
 70
     8
 71
     3
 72
     9
 73
     5
 74
     0
 42
0.000000001
 43
0.00000001
 40
0.0
 40
0.0
 40
0.0
 40
0.0
 40
0.3241602591259006
 40
1.0
 40
1.0
 40
1.0
 40
1.0
 10
41.02882853562883
 20
4.788147820800568
 30
0.0
 10
41.03083595919905
 20
4.787370143572407
 30
0.0
 10
41.03702864788839
 20
4.784971091849482
 30
0.0
 10
41.04830043020277
 20
4.786573029595798
 30
0.0
 10
41.05591834864131
 20
4.787655682787165
 30
0.0
  0
SPLINE
  5
9B
330
1F
100
AcDbEntity
  8
0
  6
Continuous
 62
     7
370
    15
100
AcDbSpline
210
0.0
220
0.0
230
1.0
 70
     8
 71
     3
 72
    13
 73
     9
 74
     0
 42
0.000000001
 43
0.00000001
 40
0.0
 40
0.0
 40
0.0
 40
0.0
 40
0.1699973490544295
 40
0.3402480667305776
 40
0.5050881749373866
 40
0.6679336440384377
 40
0.8353084163858902
 40
0.9999999999999999
 40
0.9999999999999999
 40
0.9999999999999999
 40
0.9999999999999999
 10
33.00732847447814
 20
9.608542918939687
 30
0.0
 10
33.00439724700878
 20
9.597701683655304
 30
0.0
 10
32.99853042328979
 20
9.576003055017855
 30
0.0
 10
32.99497756475274
 20
9.53520136107907
 30
0.0
 10
32.99609678316985
 20
9.494315764252972
 30
0.0
 10
33.00179874395665
 20
9.457232386765483
 30
0.0
 10
33.01101983736982
 20
9.4265333669301
 30
0.0
 10
33.01913158066876
 20
9.414904946686079
 30
0.0
 10
33.02315467974456
 20
9.409137717002807
 30
0.0
  0
SPLINE
  5
9C
330
1F
100
AcDbEntity
  8
0
  6
Continuous
 62
     7
370
    15
100
AcDbSpline
210
0.0
220
0.0
230
1.0
 70
     8
 71
     3
 72
     9
 73
     5
 74
     0
 42
0.000000001
 43
0.00000001
 40
0.0
 40
0.0
 40
0.0
 40
0.0
 40
0.4422268174646902
 40
1.0
 40
1.0
 40
1.0
 40
1.0
 10
33.02376204536767
 20
9.638516881053249
 30
0.0
 10
33.02103385631151
 20
9.635812350116712
 30
0.0
 10
33.01486464868226
 20
9.629696640192016
 30
0.0
 10
33.01002684367276
 20
9.616117163176455
 30
0.0
 10
33.00732844577612
 20
9.60854289506432
 30
0.0
  0
ENDSEC
  0
SECTION
  2
OBJECTS
  0
DICTIONARY
  5
C
330
0
100
AcDbDictionary
281
     1
  3
ACAD_DETAILVIEWSTYLE
350
A1
  3
ACAD_GROUP
350
D
  3
ACAD_LAYOUT
350
1A
  3
ACAD_MATERIAL
350
43
  3
ACAD_MLEADERSTYLE
350
A0
  3
ACAD_MLINESTYLE
350
17
  3
ACAD_PLOTSETTINGS
350
19
  3
ACAD_PLOTSTYLENAME
350
E
  3
ACAD_SCALELIST
350
47
  3
ACAD_SECTIONVIEWSTYLE
350
A2
  3
ACAD_TABLESTYLE
350
9F
  3
AcDbVariableDictionary
350
9D
  0
DICTIONARY
  5
A1
102
{ACAD_REACTORS
330
C
102
}
330
C
100
AcDbDictionary
281
     1
  0
DICTIONARY
  5
D
102
{ACAD_REACTORS
330
C
102
}
330
C
100
AcDbDictionary
281
     1
  0
DICTIONARY
  5
1A
102
{ACAD_REACTORS
330
C
102
}
330
C
100
AcDbDictionary
281
     1
  3
Layout1
350
1E
  3
Layout2
350
26
  3
Model
350
22
  0
DICTIONARY
  5
43
102
{ACAD_REACTORS
330
C
102
}
330
C
100
AcDbDictionary
281
     1
  3
ByBlock
350
45
  3
ByLayer
350
44
  3
Global
350
46
  0
DICTIONARY
  5
A0
102
{ACAD_REACTORS
330
C
102
}
330
C
100
AcDbDictionary
281
     1
  0
DICTIONARY
  5
17
102
{ACAD_REACTORS
330
C
102
}
330
C
100
AcDbDictionary
281
     1
  3
Standard
350
18
  0
DICTIONARY
  5
19
102
{ACAD_REACTORS
330
C
102
}
330
C
100
AcDbDictionary
281
     1
  0
ACDBDICTIONARYWDFLT
  5
E
102
{ACAD_REACTORS
330
C
102
}
330
C
100
AcDbDictionary
281
     1
  3
Normal
350
F
100
AcDbDictionaryWithDefault
340
F
  0
DICTIONARY
  5
47
102
{ACAD_REACTORS
330
C
102
}
330
C
100
AcDbDictionary
281
     1
  3
A0
350
48
  3
A1
350
49
  3
A2
350
4A
  3
A3
350
4B
  3
A4
350
4C
  3
A5
350
4D
  3
A6
350
4E
  3
A7
350
4F
  3
A8
350
50
  3
A9
350
51
  3
B0
350
52
  3
B1
350
53
  3
B2
350
54
  3
B3
350
55
  3
B4
350
56
  3
B5
350
57
  3
B6
350
58
  3
B7
350
59
  3
B8
350
5A
  3
B9
350
5B
  3
C0
350
5C
  3
C1
350
5D
  3
C2
350
5E
  3
C3
350
5F
  3
C4
350
60
  3
C5
350
61
  3
C6
350
62
  3
C7
350
63
  3
C8
350
64
  3
C9
350
65
  3
D0
350
66
  3
D1
350
67
  3
D2
350
68
  0
DICTIONARY
  5
A2
102
{ACAD_REACTORS
330
C
102
}
330
C
100
AcDbDictionary
281
     1
  0
DICTIONARY
  5
9F
102
{ACAD_REACTORS
330
C
102
}
330
C
100
AcDbDictionary
281
     1
  0
DICTIONARY
  5
9D
102
{ACAD_REACTORS
330
C
102
}
330
C
100
AcDbDictionary
281
     1
  3
CANNOSCALE
350
9E
  0
LAYOUT
  5
1E
102
{ACAD_REACTORS
330
1A
102
}
330
1A
100
AcDbPlotSettings
  1

  2
none_device
  4

  6

 40
0.0
 41
0.0
 42
0.0
 43
0.0
 44
0.0
 45
0.0
 46
0.0
 47
0.0
 48
0.0
 49
0.0
140
0.0
141
0.0
142
1.0
143
1.0
 70
   688
 72
     0
 73
     0
 74
     5
  7

 75
    16
 76
     0
 77
     2
 78
   300
147
1.0
148
0.0
149
0.0
100
AcDbLayout
  1
Layout1
 70
     1
 71
     1
 10
0.0
 20
0.0
 11
12.0
 21
9.0
 12
0.0
 22
0.0
 32
0.0
 14
1.0000000000E+20
 24
1.0000000000E+20
 34
1.0000000000E+20
 15
-1.0000000000E+20
 25
-1.0000000000E+20
 35
-1.0000000000E+20
146
0.0
 13
0.0
 23
0.0
 33
0.0
 16
1.0
 26
0.0
 36
0.0
 17
0.0
 27
1.0
 37
0.0
 76
     0
330
1B
  0
LAYOUT
  5
26
102
{ACAD_REACTORS
330
1A
102
}
330
1A
100
AcDbPlotSettings
  1

  2
none_device
  4

  6

 40
0.0
 41
0.0
 42
0.0
 43
0.0
 44
0.0
 45
0.0
 46
0.0
 47
0.0
 48
0.0
 49
0.0
140
0.0
141
0.0
142
1.0
143
1.0
 70
   688
 72
     0
 73
     0
 74
     5
  7

 75
    16
 76
     0
 77
     2
 78
   300
147
1.0
148
0.0
149
0.0
100
AcDbLayout
  1
Layout2
 70
     1
 71
     2
 10
0.0
 20
0.0
 11
0.0
 21
0.0
 12
0.0
 22
0.0
 32
0.0
 14
0.0
 24
0.0
 34
0.0
 15
0.0
 25
0.0
 35
0.0
146
0.0
 13
0.0
 23
0.0
 33
0.0
 16
1.0
 26
0.0
 36
0.0
 17
0.0
 27
1.0
 37
0.0
 76
     0
330
23
  0
LAYOUT
  5
22
102
{ACAD_REACTORS
330
1A
102
}
330
1A
100
AcDbPlotSettings
  1

  2
none_device
  4
Letter_(8.50_x_11.00_Inches)
  6

 40
6.35
 41
6.35
 42
6.35000508
 43
6.35000508
 44
215.9
 45
279.4
 46
0.0
 47
0.0
 48
0.0
 49
0.0
140
0.0
141
0.0
142
1.0
143
1.0
 70
  1712
 72
     0
 73
     0
 74
     0
  7

 75
     0
 76
     0
 77
     2
 78
   300
147
1.0
148
0.0
149
0.0
100
AcDbLayout
  1
Model
 70
     1
 71
     0
 10
0.0
 20
0.0
 11
78.7401574803
 21
59.0551181102
 12
0.0
 22
0.0
 32
0.0
 14
0.0
 24
0.0
 34
0.0
 15
78.7401574803
 25
59.0551181102
 35
0.0
146
0.0
 13
0.0
 23
0.0
 33
0.0
 16
1.0
 26
0.0
 36
0.0
 17
0.0
 27
1.0
 37
0.0
 76
     0
330
1F
331
29
  0
MATERIAL
  5
45
102
{ACAD_REACTORS
330
43
102
}
330
43
100
AcDbMaterial
  1
ByBlock
  0
MATERIAL
  5
44
102
{ACAD_REACTORS
330
43
102
}
330
43
100
AcDbMaterial
  1
ByLayer
  0
MATERIAL
  5
46
102
{ACAD_REACTORS
330
43
102
}
330
43
100
AcDbMaterial
  1
Global
  0
MLINESTYLE
  5
18
102
{ACAD_REACTORS
330
17
102
}
330
17
100
AcDbMlineStyle
  2
Standard
 70
     0
  3

 62
   256
 51
90.0
 52
90.0
 71
     2
 49
0.5
 62
   256
  6
BYLAYER
 49
-0.5
 62
   256
  6
BYLAYER
  0
ACDBPLACEHOLDER
  5
F
102
{ACAD_REACTORS
330
E
102
}
330
E
  0
SCALE
  5
48
102
{ACAD_REACTORS
330
47
102
}
330
47
100
AcDbScale
 70
     0
300
1:1
140
1.0
141
1.0
290
     1
  0
SCALE
  5
49
102
{ACAD_REACTORS
330
47
102
}
330
47
100
AcDbScale
 70
     0
300
1:2
140
1.0
141
2.0
290
     0
  0
SCALE
  5
4A
102
{ACAD_REACTORS
330
47
102
}
330
47
100
AcDbScale
 70
     0
300
1:4
140
1.0
141
4.0
290
     0
  0
SCALE
  5
4B
102
{ACAD_REACTORS
330
47
102
}
330
47
100
AcDbScale
 70
     0
300
1:5
140
1.0
141
5.0
290
     0
  0
SCALE
  5
4C
102
{ACAD_REACTORS
330
47
102
}
330
47
100
AcDbScale
 70
     0
300
1:8
140
1.0
141
8.0
290
     0
  0
SCALE
  5
4D
102
{ACAD_REACTORS
330
47
102
}
330
47
100
AcDbScale
 70
     0
300
1:10
140
1.0
141
10.0
290
     0
  0
SCALE
  5
4E
102
{ACAD_REACTORS
330
47
102
}
330
47
100
AcDbScale
 70
     0
300
1:16
140
1.0
141
16.0
290
     0
  0
SCALE
  5
4F
102
{ACAD_REACTORS
330
47
102
}
330
47
100
AcDbScale
 70
     0
300
1:20
140
1.0
141
20.0
290
     0
  0
SCALE
  5
50
102
{ACAD_REACTORS
330
47
102
}
330
47
100
AcDbScale
 70
     0
300
1:30
140
1.0
141
30.0
290
     0
  0
SCALE
  5
51
102
{ACAD_REACTORS
330
47
102
}
330
47
100
AcDbScale
 70
     0
300
1:40
140
1.0
141
40.0
290
     0
  0
SCALE
  5
52
102
{ACAD_REACTORS
330
47
102
}
330
47
100
AcDbScale
 70
     0
300
1:50
140
1.0
141
50.0
290
     0
  0
SCALE
  5
53
102
{ACAD_REACTORS
330
47
102
}
330
47
100
AcDbScale
 70
     0
300
1:100
140
1.0
141
100.0
290
     0
  0
SCALE
  5
54
102
{ACAD_REACTORS
330
47
102
}
330
47
100
AcDbScale
 70
     0
300
2:1
140
2.0
141
1.0
290
     0
  0
SCALE
  5
55
102
{ACAD_REACTORS
330
47
102
}
330
47
100
AcDbScale
 70
     0
300
4:1
140
4.0
141
1.0
290
     0
  0
SCALE
  5
56
102
{ACAD_REACTORS
330
47
102
}
330
47
100
AcDbScale
 70
     0
300
8:1
140
8.0
141
1.0
290
     0
  0
SCALE
  5
57
102
{ACAD_REACTORS
330
47
102
}
330
47
100
AcDbScale
 70
     0
300
10:1
140
10.0
141
1.0
290
     0
  0
SCALE
  5
58
102
{ACAD_REACTORS
330
47
102
}
330
47
100
AcDbScale
 70
     0
300
100:1
140
100.0
141
1.0
290
     0
  0
SCALE
  5
59
102
{ACAD_REACTORS
330
47
102
}
330
47
100
AcDbScale
 70
     0
300
1/128" = 1'-0"
140
0.0078125
141
12.0
290
     0
  0
SCALE
  5
5A
102
{ACAD_REACTORS
330
47
102
}
330
47
100
AcDbScale
 70
     0
300
1/64" = 1'-0"
140
0.015625
141
12.0
290
     0
  0
SCALE
  5
5B
102
{ACAD_REACTORS
330
47
102
}
330
47
100
AcDbScale
 70
     0
300
1/32" = 1'-0"
140
0.03125
141
12.0
290
     0
  0
SCALE
  5
5C
102
{ACAD_REACTORS
330
47
102
}
330
47
100
AcDbScale
 70
     0
300
1/16" = 1'-0"
140
0.0625
141
12.0
290
     0
  0
SCALE
  5
5D
102
{ACAD_REACTORS
330
47
102
}
330
47
100
AcDbScale
 70
     0
300
3/32" = 1'-0"
140
0.09375
141
12.0
290
     0
  0
SCALE
  5
5E
102
{ACAD_REACTORS
330
47
102
}
330
47
100
AcDbScale
 70
     0
300
1/8" = 1'-0"
140
0.125
141
12.0
290
     0
  0
SCALE
  5
5F
102
{ACAD_REACTORS
330
47
102
}
330
47
100
AcDbScale
 70
     0
300
3/16" = 1'-0"
140
0.1875
141
12.0
290
     0
  0
SCALE
  5
60
102
{ACAD_REACTORS
330
47
102
}
330
47
100
AcDbScale
 70
     0
300
1/4" = 1'-0"
140
0.25
141
12.0
290
     0
  0
SCALE
  5
61
102
{ACAD_REACTORS
330
47
102
}
330
47
100
AcDbScale
 70
     0
300
3/8" = 1'-0"
140
0.375
141
12.0
290
     0
  0
SCALE
  5
62
102
{ACAD_REACTORS
330
47
102
}
330
47
100
AcDbScale
 70
     0
300
1/2" = 1'-0"
140
0.5
141
12.0
290
     0
  0
SCALE
  5
63
102
{ACAD_REACTORS
330
47
102
}
330
47
100
AcDbScale
 70
     0
300
3/4" = 1'-0"
140
0.75
141
12.0
290
     0
  0
SCALE
  5
64
102
{ACAD_REACTORS
330
47
102
}
330
47
100
AcDbScale
 70
     0
300
1" = 1'-0"
140
1.0
141
12.0
290
     0
  0
SCALE
  5
65
102
{ACAD_REACTORS
330
47
102
}
330
47
100
AcDbScale
 70
     0
300
1-1/2" = 1'-0"
140
1.5
141
12.0
290
     0
  0
SCALE
  5
66
102
{ACAD_REACTORS
330
47
102
}
330
47
100
AcDbScale
 70
     0
300
3" = 1'-0"
140
3.0
141
12.0
290
     0
  0
SCALE
  5
67
102
{ACAD_REACTORS
330
47
102
}
330
47
100
AcDbScale
 70
     0
300
6" = 1'-0"
140
6.0
141
12.0
290
     0
  0
SCALE
  5
68
102
{ACAD_REACTORS
330
47
102
}
330
47
100
AcDbScale
 70
     0
300
1'-0" = 1'-0"
140
12.0
141
12.0
290
     0
  0
DICTIONARYVAR
  5
9E
102
{ACAD_REACTORS
330
9D
102
}
330
9D
100
DictionaryVariables
280
     0
  1
1:1
  0
ENDSEC
  0
EOF
